Song name
# A B C D E F G H I J K L M N O P Q R S T U V W X Y Z

Paul Gilbert - Scarified tab

from the space ship live dvd
tempo 140

--------------------------------|
--------------------------------|
--------------------------------|
--------------------------------|
--------------------------------|
2-2-2-2-2-2-2-2-2-2-2-2-2-2-2-2-| 3 times

----------------------------------|
----------------------------------|
----------------------------------|
----------------------------------|
-----------------------4----------|
2-2-2-2-2-2-2-2-2/4-5-7-7-5-4-5-7-|


------------------------------------------|
------------------------------------------|
------------------------------------------|
---------------------------4--------6-7-6-|
-4-5-4---4-7-5-7-4---4-5-7---7-5-4-8------|
-------7-----------7----------------------|

-----------------------------------------|
-----------------------------------------|
---------------------6-----------6-7-6-6-|
---6-9-7-9-7-6--6-7-9--9-7-6-7-9------9--|
-9-------------9-------------------------|
-----------------------------------------|

----------------------------9------9-10-9--9-|
--------------------9-10-12---12-10------12--|
-9-7-9-7-6---6-9-11--------------------------|
-----------9---------------------------------|
---------------------------------------------|
---------------------------------------------|

-12-10-12-10-9----9-12-12b13r12b13-|
---------------12------------------|
-----------------------------------|
-----------------------------------| "take it away marco"
-----------------------------------|
-----------------------------------|
Tap to rate this tab
# A B C D E F G H I J K L M N O P Q R S T U V W X Y Z