Song name
# A B C D E F G H I J K L M N O P Q R S T U V W X Y Z

Paul Gilbert - Paul Vs Godzilla tab

#----------------------------------PLEASE NOTE---------------------------------#
#This file is the author's own work and represents their interpretation of the #
#song. You may only use this file for private study, scholarship, or research. #
#------------------------------------------------------------------------------##


Gtr I (E A D G B E) - 'Untitled'

 4/4
  Gtr I

|------------7-------------------------------------------|
|------------7---4S6-4-----------------------------------|
|----------------4S6-4--4S6-6-4-6--11-11-11-11-9--9S6----|
|-----------------------4S6-6-4-6--11-11-11-11-9--9S6----|
|-2---------------------2S4-4-2-4---9--9--9--9-----------|
|---4-4-2-4----x-----------------------------------------|


|------------7------------------------------------0--------------|
|------------7---4S6-4------------0-------0-----4---------9-8----|
|----------------4S6-4----------3-------3-----4---------6--------|
|-----------------------------2-------2---------------8----------|
|-2-----------------------------------------4-------6------------|
|---4-4-2-4----x-------12\--0-------2----------------------------|


|-----------7------3S7-------------------------------------------|
|-------7------9---3S7-9---/7-6--6b7r6b7r6b7r6b7r6-4h6-----------|
|-4h6S8---8----------------/6--------------------------6--4------|
|-----------------------------------------------------------6----|
|----------------------------------------------------------------|
|----------------------------------------------------------------|

If anyone would like to continue tabbing this song that would be awesome! I know I'm 
to work at it... though it will be slow as I'm also working on many other songs.
Tap to rate this tab
# A B C D E F G H I J K L M N O P Q R S T U V W X Y Z