Song name
# A B C D E F G H I J K L M N O P Q R S T U V W X Y Z

Paul Gilbert - Potato Head tab

Paul gilbert - Potato head

This is not entierly correct and complete :P

The song is featured in the album Acoustic Samurai.

The song starts with a open D-chord i think and you will just hit the strings and do 
pull offs on low E. I think you can here itīs something similar on the track.

After the little intro you will just play in eights.
Open G and Open C* in the vers and Cm and Gm in the ref.

*Note
You can hear how Paul lower the open C when he sings "Head" in the vers. I dont know the 
of the chord but its the same shape as an open G but with the C-note in base as in the 
C-chord :)

Vers: C G C C(something-chord)
Ref:  Cm# Gm Cm# Gm A(5th fret)


The solo is quite simple...

e--xxx-00-00-x--xxx--00-00---x--------------|x2
b--333-00-10-3--333--00-10---x--------------|
g--000-00-x0-0--000--00-x0---0--------------|
d--000-00-xx-0--000--00-xx---0--------------|
a----------------------------x--------------|
E----------------------------x--------------|

e--000-x-x-x--------------------------------| Solo end
b--000-1-2-2--------------------------------|
g--000-0-0-0--------------------------------|
d--000-x-x-x--------------------------------|
a-------------------------------------------|
E-------------------------------------------|

After the solo i think you will have to change ocatve and i dont know what chords he 
here xD im working on it but if someone could help me feel free to do that :) 
^^

Hope this helped :)
Tap to rate this tab
# A B C D E F G H I J K L M N O P Q R S T U V W X Y Z