Song name
# A B C D E F G H I J K L M N O P Q R S T U V W X Y Z

Paul Gilbert - Pulsar tab

E--------------------------------------------------|
B--------------------------------------------------|
G--------------------------------------------------|
D--------------------------------0-------0---------|
A---------------1-1-----0--1h3------1h3------------|
E--X-X-3-3-1-3-------3-----------------------------|


E-------------------------------------------------|
B-------------------------------------------------|
G----------------------5p3p0----0----0------------|
D-----------------------------3----3----3/2-------|
A---------------1-1-------------------------------|
E--X-X-3-3-1-3------3-----------------------------|

E--------------------------------------------------|
B--------------------------------------------------|
G--------------------------------------------------|
D--------------------------------0-------0---------|
A---------------1-1-----0--1h3------1h3------------|
E--X-X-3-3-1-3-------3-----------------------------|

E--------------------------------------------------|
B--------------------------------------------------|
G------------3-5-3---------------------------------|
D---3---5-----------5~-----------------------------|
A---3----------------------------------------------|
E--------------------------------------------------|
Tap to rate this tab
# A B C D E F G H I J K L M N O P Q R S T U V W X Y Z