Song name
# A B C D E F G H I J K L M N O P Q R S T U V W X Y Z

Paul Gilbert - Scarified chords

                               Scarified                                     


                                                     


      W                   W                   W                 
D#||-------------------|-------------------|-------------------|
A#||-------------------|-------------------|-------------------|
F#||-------------------|-------------------|-------------------|
C#||-------------------|-------------------|-------------------|
G#||-------------------|-------------------|-------------------|
D#||-------------------|-------------------|-------------------|


                                            |-3-|        
  W                     S S S S S S S S S S S S S E  E   
-------------------||-----------------------------------|
-------------------||-----------------------------------|
-------------------||*----------------------------------|
-------------------||*----------------------------------|
-------------------||-----------------------------4--4--|
-------------------||---2-2-2-2-2-2-2-2-2-2-4-5-7----2--|


                    |-3-|                              |-3-|        
  E  E  S S S S S S S S S Q        S S S S S S S S S S S S S E  E   
--------------------------------|----------------------------------|
--------------------------------|----------------------------------|
--------------------------6~----|----------------------------------|
--------------------6-7-9-------|----------------------------------|
--------------5-7-9-------------|----------------------------4--4--|
-----2--5-7-9-------------------|--2-2-2-2-2-2-2-2-2-2-4-5-7----2--|


                                                       |-3-|        
  E  E  S S S S S S S S S S S S    S S S S S S S S S S S S S E  E   
--------------------------------|----------------------------------|
--------------------------------|----------------------------------|
--------7-6-4-------------------|----------------------------------|
--------------7-6-4-------------|----------------------------------|
--------------------7-5-4-------|----------------------------4--4--|
-----2--------------------7-5-4-|--2-2-2-2-2-2-2-2-2-2-4-5-7----2--|


                    |-3-|                              |-3-|        
  E  E  S S S S S S S S S Q        S S S S S S S S S S S S S E  E   
--------------------------------|----------------------------------|
--------------------------------|----------------------------------|
--------------------------6~----|----------------------------------|
--------------------6-7-9-------|----------------------------------|
--------------5-7-9-------------|----------------------------4--4--|
-----2--5-7-9-------------------|--2-2-2-2-2-2-2-2-2-2-4-5-7----2--|


                 |--3-|            
  E  E  S S  S S S  S S Q.         
---------------------------------||
---------------------------------||
----------------------7-9S------*||
---------------7-9-11---9S------*||
--------7-9-11-------------------||
-----2---------------------------||


   S   S  S  S  S  S  S  S  S  S   S  S  S   S  S  S  
--21p-17-14----------14-17-21-17p-14-----------------|
------------15----15-----------------16--------------|
---------------14-----------------------18p-14-------|
-----------------------------------------------16----|
--------------------------------------------------18-|
-----------------------------------------------------|


         |--3--|             |---3---|  |---3---|          |---3--|   
   S  S  S  S  S  S   S  E   S   S   S  S   S   S  S   S   S  S   S   
--------------16-19p-16-----19p-16p-13-----------------------13h-16h-|
-----------17-----------17-------------------------------------------|
--------16-----------------------------19p-16p-13-13h-16h-19---------|
-----18--------------------------------------------------------------|
--19-----------------------------------------------------------------|
---------------------------------------------------------------------|


   W                    H.            Q      
--17~----------------|--L------------17S----|
---------------------|----------------------|
---------------------|----------------------|
---------------------|----------------------|
---------------------|----------------------|
---------------------|----------------------|


  S  S S  S S  S  S S  S  S S  S S  S S  S  
--9---------9----14-9-------9-10-9-14-9----|
----10-9-10---10------10-12-------------10-|
-------------------------------------------|
-------------------------------------------|
-------------------------------------------|
-------------------------------------------|


   S  S  S  S  S  S  S  S  S  S  S  S  S  S  S  S  
--14----------14----19-14-------14-15-14-19-14----|
-----15-14-15----15-------15-17----------------15-|
--------------------------------------------------|
--------------------------------------------------|
--------------------------------------------------|
--------------------------------------------------|


   S  S  S  S  S  S  S  S  S  S  S  S  S  S  S  S  
--------------------12----16-14-16-12----12-------|
--12----------12-------12-------------12----12----|
-----13-11-13----13----------------------------13-|
--------------------------------------------------|
--------------------------------------------------|
--------------------------------------------------|


   S  S  S  S  S  S  S  S  S  S  S  S  S  S  S  S  
--------------------17----21-19-21-17----17-------|
--17----------17-------17-------------17----17----|
-----18-16-18----18----------------------------18-|
--------------------------------------------------|
--------------------------------------------------|
--------------------------------------------------|


   S  S S  S  S  S  S  S  S  S  S  S  S  S  S  S  
-------------------10----14-12-14-10----10-------|
--10---------10-------10-------------10----10----|
-----11-9-11----11----------------------------11-|
-------------------------------------------------|
-------------------------------------------------|
-------------------------------------------------|


   S  S  S  S  S  S  S  S  S  S  S  S  S  S  S  S  
--------------------14----19-17-19-14----14-------|
--15----------15-------15-------------15----15----|
-----16-14-16----16----------------------------16-|
--------------------------------------------------|
--------------------------------------------------|
--------------------------------------------------|


  S  S S  S S  S S S  S  S  S S S S S  S  
-----------------9---13-11-13-9---9------|
--9---------9------9------------9---9----|
----10-8-10---10----------------------10-|
-----------------------------------------|
-----------------------------------------|
-----------------------------------------|


  S  S S  S S  S  S S  S  S  S  S  S  S  S  S  
--9---------9----14-9-17-16-14----------------|
----10-9-10---10---------------17-16-14-------|
----------------------------------------16-14-|
----------------------------------------------|
----------------------------------------------|
----------------------------------------------|


  S  S S  S S  S S S  S  S  S S S S S  S  
-----------------9---13-11-13-9---9------|
--9---------9------9------------9---9----|
----10-8-10---10----------------------10-|
-----------------------------------------|
-----------------------------------------|
-----------------------------------------|


                       |--3--|  |--3--|                              
  S  S S  S S  S  S S  S  S  S  S  S  S  E   E     W                 
--9---------9----14-9-17-16-14----------17S-----|-------------------|
----10-9-10---10---------------17-16-14---------|-------------------|
------------------------------------------------|-------------------|
------------------------------------------------|-------------------|
------------------------------------------------|-------------------|
------------------------------------------------|-------------------|


                                          |-3-|        
  W                   S S S S S S S S S S S S S E  E   
-------------------|----------------------------------|
-------------------|----------------------------------|
-------------------|----------------------------------|
-------------------|----------------------------------|
-------------------|----------------------------4--4--|
-------------------|--2-2-2-2-2-2-2-2-2-2-4-5-7----2--|


                    |-3-|                              |-3-|        
  E  E  S S S S S S S S S Q        S S S S S S S S S S S S S E  E   
--------------------------------|----------------------------------|
--------------------------------|----------------------------------|
--------------------------6~----|----------------------------------|
--------------------6-7-9-------|----------------------------------|
--------------5-7-9-------------|----------------------------4--4--|
-----2--5-7-9-------------------|--2-2-2-2-2-2-2-2-2-2-4-5-7----2--|


                                                       |-3-|        
  E  E  S S S S S S S S S S S S    S S S S S S S S S S S S S E  E   
--------------------------------|----------------------------------|
--------------------------------|----------------------------------|
--------7-6-4-------------------|----------------------------------|
--------------7-6-4-------------|----------------------------------|
--------------------7-5-4-------|----------------------------4--4--|
-----2--------------------7-5-4-|--2-2-2-2-2-2-2-2-2-2-4-5-7----2--|


                    |-3-|                              |-3-|        
  E  E  S S S S S S S S S Q        S S S S S S S S S S S S S E  E   
--------------------------------|----------------------------------|
--------------------------------|----------------------------------|
--------------------------6~----|----------------------------------|
--------------------6-7-9-------|----------------------------------|
--------------5-7-9-------------|----------------------------4--4--|
-----2--5-7-9-------------------|--2-2-2-2-2-2-2-2-2-2-4-5-7----2--|


                 |--3-|          
  E  E  S S  S S S  S S Q.       
--------------------------------|
--------------------------------|
----------------------7-9S------|
---------------7-9-11---9S------|
--------7-9-11------------------|
-----2--------------------------|


   S   S  S  S  S  S  S  S  S  S   S  S  S   S  S  S  
--21p-17-14----------14-17-21-17p-14-----------------|
------------15----15-----------------16--------------|
---------------14-----------------------18p-14-------|
-----------------------------------------------16----|
--------------------------------------------------18-|
-----------------------------------------------------|


         |--3--|             |---3---|  |---3---|          |---3--|   
   S  S  S  S  S  S   S  E   S   S   S  S   S   S  S   S   S  S   S   
--------------16-19p-16-----19p-16p-13-----------------------13h-16h-|
-----------17-----------17-------------------------------------------|
--------16-----------------------------19p-16p-13-13h-16h-19---------|
-----18--------------------------------------------------------------|
--19-----------------------------------------------------------------|
---------------------------------------------------------------------|


   W                    H.            Q      
--17~----------------|--L------------17S----|
---------------------|----------------------|
---------------------|----------------------|
---------------------|----------------------|
---------------------|----------------------|
---------------------|----------------------|


  S  S S  S S  S  S S  S  S S  S S  S S  S  
--9---------9----14-9-------9-10-9-14-9----|
----10-9-10---10------10-12-------------10-|
-------------------------------------------|
-------------------------------------------|
-------------------------------------------|
-------------------------------------------|


   S  S  S  S  S  S  S  S  S  S  S  S  S  S  S  S  
--14----------14----19-14-------14-15-14-19-14----|
-----15-14-15----15-------15-17----------------15-|
--------------------------------------------------|
--------------------------------------------------|
--------------------------------------------------|
--------------------------------------------------|


   S  S  S  S  S  S  S  S  S  S  S  S  S  S  S  S  
--------------------12----16-14-16-12----12-------|
--12----------12-------12-------------12----12----|
-----13-11-13----13----------------------------13-|
--------------------------------------------------|
--------------------------------------------------|
--------------------------------------------------|


   S  S  S  S  S  S  S  S  S  S  S  S  S  S  S  S  
--------------------17----21-19-21-17----17-------|
--17----------17-------17-------------17----17----|
-----18-16-18----18----------------------------18-|
--------------------------------------------------|
--------------------------------------------------|
--------------------------------------------------|


   S  S S  S  S  S  S  S  S  S  S  S  S  S  S  S  
-------------------10----14-12-14-10----10-------|
--10---------10-------10-------------10----10----|
-----11-9-11----11----------------------------11-|
-------------------------------------------------|
-------------------------------------------------|
-------------------------------------------------|


   S  S  S  S  S  S  S  S  S  S  S  S  S  S  S  S  
--------------------14----19-17-19-14----14-------|
--15----------15-------15-------------15----15----|
-----16-14-16----16----------------------------16-|
--------------------------------------------------|
--------------------------------------------------|
--------------------------------------------------|


  S  S S  S S  S S S  S  S  S S S S S  S  
-----------------9---13-11-13-9---9------|
--9---------9------9------------9---9----|
----10-8-10---10----------------------10-|
-----------------------------------------|
-----------------------------------------|
-----------------------------------------|


  S  S S  S S  S  S S  S  S  S  S  S  S  S  S  
--9---------9----14-9-17-16-14----------------|
----10-9-10---10---------------17-16-14-------|
----------------------------------------16-14-|
----------------------------------------------|
----------------------------------------------|
----------------------------------------------|


   S  S  S  S  S  S  S  S  S  S  S  S  S  S  S  S  
--------------------11----15-13-15-11----11-------|
--11----------11-------11-------------11----11----|
-----12-10-12----12----------------------------12-|
--------------------------------------------------|
--------------------------------------------------|
--------------------------------------------------|


   S  S  S  S  S  S  S  S  S  S  S  S  S  S  S  S  
--11----------11----16-11-19-18-16----------------|
-----12-11-12----12----------------19-18-16-------|
--------------------------------------------18-16-|
--------------------------------------------------|
--------------------------------------------------|
--------------------------------------------------|


   |-----3-----|                                           
   Q     Q     Q     H              Q     Q     H          
--------------------------------|--------------18~--------|
--------------------16S~--------|-------------------------|
--15----16----18----------------|-------------------------|
--------------------------------|--18S--------------------|
--------------------------------|-------------------------|
--------------------------------|-------------------------|


                                              |---3---|   
  H        E   E   E   E      H         Q     E   E   E   
--L-----------------------|----------------------16--18--|
--------------------------|------------------17----------|
------------------13--15--|--16~-------------------------|
--------------14----------|------------------------------|
--------------------------|------------------------------|
--------------------------|------------------------------|


           |---3--|  |---3---|              
   S   S   S   S  S  E   E   E   H          
--18h-19p-18p-16----16---------------------|
-----------------19-----17-----------------|
----------------------------16--15~--------|
-------------------------------------------|
-------------------------------------------|
-------------------------------------------|


  E  Q.      S  S S  S S T  T T  T T  T  
----------------------------------------|
-------------5p-4------7-5h-7-5p-4------|
-----6b-----------6p-4-------------6p-4-|
----------------------------------------|
----------------------------------------|
----------------------------------------|


                          |--3--|  |--3-|  
  S  S S  S Q.      S  S  S  S  S  S  S S  
-------4h-6-7b------7p-6S-4h-6h-7p-6p-4---|
--5h-7----------------------------------7-|
------------------------------------------|
------------------------------------------|
------------------------------------------|
------------------------------------------|


                 |--3--|                                                   
  S S  S  S S  S S  S  S S  S S S Q        E   E  S S S S S S S S   Q      
--4-------------------------------------|---------------------------------|
----7p-5p-4-----------------------------|---------------------------------|
------------6p-4-3h-4h-6-4p-3---4-4~----|--4~-------------------6-<>8b----|
------------------------------6---------|-----------------6-8-9-----------|
----------------------------------------|-----------6-7-9-----------------|
----------------------------------------|---------9-----------------------|


  E  E  E  E  H           H        H           E  E  E  E  Q    Q     
-----------------------|--------------------|------------------------|
-----------------------|--------------------|------------------------|
-----------------------|--------------------|------------------------|
--9-----------9--------|--L--------9--------|--9-----------8----9----|
--7--7--7--7--7--------|--L--------7--------|--7--7--7--7--6----7----|
-----------------------|--------------------|------------------------|


  Q    E  E  E  Q.        E  E  E  E  E  E  E  E     E  E  E  E  E  E  E  E   
-----------------------|--------------------------|--------------------------|
-----------------------|--------------------------|--------------------------|
-----------------------|--------------------------|--------------------------|
--L----9-----9---------|--------------------------|--------------------------|
--L----7--7--7--5------|--6-----------6-----------|--6-----------6-----------|
----------------3------|--4--4--4--4--4--4--4--4--|--4--4--4--4--4--4--4--4--|


                                                 |--3--|  
  E  E  E  E  E  E  E  E     E  E  E  E  Q.      S  S  S  
--------------------------|------------------------------|
--------------------------|------------------------------|
--------------------------|------------------------------|
--------------------------|---------------------14-16-18-|
--6-----------6-----------|--6-----------6---------------|
--4--4--4--4--4--4--4--4--|--4--4--4--4--4---------------|


   |--3--|  |--3--|  |--3--|  |--3--|  |--3--|  |--3--|      |--3--|  
   S  S  S  S  S  S  S  S  S  S  S  S  S  S  S  S  S  S  E   S  S  S  
--------------------------------------------------------14-----------|
--------------------------------------17-------14-16-17--------------|
--14----------------16-------16-18-20----20-18-----------------------|
-----18-16-16-18-19----19-18--------------------------------18-19-21-|
---------------------------------------------------------------------|
---------------------------------------------------------------------|


   |--3--|  |--3--|  |--3--|  |--3--|  |--3--|  |--3--|  |--3--|  |--3--|  
   S  S  S  S  S  S  S  S  S  S  S  S  S  S  S  S  S  S  S  S  S  S  S  S  
--------------------------------------------------------------------------|
--------------------------------------------------------------------------|
--18----------------18----18-------------------18----18-------------------|
-----21-19-18-19-21----21----21-19-18-18-19-21----21----21-19-18-18-19-21-|
--------------------------------------------------------------------------|
--------------------------------------------------------------------------|


   |--3--|  |--3--|  |--3--|  |--3--|  |--3--|  |--3--|  |--3--|  |--3--|  
   S  S  S  S  S  S  S  S  S  S  S  S  S  S  S  S  S  S  S  S  S  S  S  S  
--------------------------------------------------------------------------|
--------------------------------------------------------------------------|
--18----------------18----18-------------------18----18-------------------|
-----21-19-18-19-21----21----21-19-18-18-19-21----21----21-19-18-18-19-21-|
--------------------------------------------------------------------------|
--------------------------------------------------------------------------|


   |--3--|  |--3--|  |--3--|  |--3--|  |--3--|  |--3--|            
   S  S  S  S  S  S  S  S  S  S  S  S  S  S  S  S  S  S  E   S  S  
------------------------------------------------------------15-17-|
------------------------------------------------------------------|
--18-------------------18----18-------------------18----18--------|
-----21-19-18-18-19-21----21----21-19-18-18-19-21----21-----------|
------------------------------------------------------------------|
------------------------------------------------------------------|


                       |---3---|                      |---3---|            
   S   S  S  S   S  S  S   S   S  S  S  T   T   T  T  S   S   S  S  T  T   
--18p-16----16h-19-18-19p-18p-16--------------------------------16--------|
---------19----------------------19-16-19p-17p-16----16h-17h-19----19-17h-|
--------------------------------------------------18----------------------|
--------------------------------------------------------------------------|
--------------------------------------------------------------------------|
--------------------------------------------------------------------------|


   |---3---|        |----3---|                                     |-3-|        
   S   S   S  S  S  E   E    E    H            S S S S S S S S S S S S S E  E   
--------------------------------------------|----------------------------------|
--19p-17p-16----16-19--19b--19b--19b--------|----------------------------------|
-------------19-----------------------------|----------------------------------|
--------------------------------------------|----------------------------------|
--------------------------------------------|----------------------------4--4--|
--------------------------------------------|--2-2-2-2-2-2-2-2-2-2-4-5-7----2--|


                    |-3-|                              |-3-|        
  E  E  S S S S S S S S S Q        S S S S S S S S S S S S S E  E   
--------------------------------|----------------------------------|
--------------------------------|----------------------------------|
--------------------------6~----|----------------------------------|
--------------------6-7-9-------|----------------------------------|
--------------5-7-9-------------|----------------------------4--4--|
-----2--5-7-9-------------------|--2-2-2-2-2-2-2-2-2-2-4-5-7----2--|


  E  E  S S S S S S S S E  E   
------------------------------|
------------------------------|
--------7-6-4-----------------|
--------------7-6-4-----------|
--------------------7-5-4-----|
-----2------------------------|


                            |---3--|   |--3--|  |---3--|   |--3--|  
   S   S  S  S  S  S  S  S  S   S  S   S  S  S  S   S  S   S  S  S  
--16p-12----------------12-16p-12-16p-12----12-17p-16-17p-16----16-|
---------14----------14------------------14------------------17----|
------------13----13-----------------------------------------------|
---------------14--------------------------------------------------|
-------------------------------------------------------------------|
-------------------------------------------------------------------|


                            |---3--|   |--3--|  |---3--|   |--3--|  
   S   S  S  S  S  S  S  S  S   S  S   S  S  S  S   S  S   S  S  S  
--16p-12----------------12-16p-12-16p-12----12-17p-16-17p-16----16-|
---------14----------14------------------14------------------17----|
------------13----13-----------------------------------------------|
---------------14--------------------------------------------------|
-------------------------------------------------------------------|
-------------------------------------------------------------------|


                         |--3--|  |--3-|  |---3---|   |--3--|  
   S  S  S  S S  S  S S  S  S  S  S  S S  S   S   S   S  S  S  
--12p-9---------------9-12p-9-12p-9----9-15p-12h-15p-12----12-|
--------11---------11---------------11------------------14----|
-----------12-9-12--------------------------------------------|
--------------------------------------------------------------|
--------------------------------------------------------------|
--------------------------------------------------------------|


                         |---3--|   |--3--|  |---3--|   |--3--|  
   S  S  S  S S  S  S S  S   S  S   S  S  S  S   S  S   S  S  S  
--12p-9---------------9-15p-12-15p-12----12-18p-15-18p-15----15-|
--------11---------11-----------------14------------------16----|
-----------12-9-12----------------------------------------------|
----------------------------------------------------------------|
----------------------------------------------------------------|
----------------------------------------------------------------|


                            |---3--|   |--3--|  |---3--|   |--3--|  
   S   S  S  S  S  S  S  S  S   S  S   S  S  S  S   S  S   S  S  S  
--18p-14----------------14-18p-14-18p-14----14-19p-18-19p-18----18-|
---------16----------16------------------16------------------19----|
------------15----15-----------------------------------------------|
---------------16--------------------------------------------------|
-------------------------------------------------------------------|
-------------------------------------------------------------------|


                            |---3--|   |--3--|  |---3--|   |--3--|  
   S   S  S  S  S  S  S  S  S   S  S   S  S  S  S   S  S   S  S  S  
--18p-14----------------14-18p-14-18p-14----14-19p-18-19p-18----18-|
---------16----------16------------------16------------------19----|
------------15----15-----------------------------------------------|
---------------16--------------------------------------------------|
-------------------------------------------------------------------|
-------------------------------------------------------------------|


                            |---3---|   |--3--|  |---3--|   |--3--|  
   S   S  S  S  S  S  S  S  S   S   S   S  S  S  S   S  S   S  S  S  
--13p-10----------------10-16p-13h-16p-13----13-19p-16-19p-16-------|
---------12----------12-------------------15------------------18-17-|
------------13-10-13------------------------------------------------|
--------------------------------------------------------------------|
--------------------------------------------------------------------|
--------------------------------------------------------------------|


                            |---3---|   |--3--|       |--3--|  
   S   S  S  S  S  S  S  S  S   S   S   S  S  S  E    S  S  S  
--13p-10----------------10-16p-13h-16p-13----13-19S-----------|
---------12----------12-------------------15------------------|
------------13-10-13------------------------------------------|
-----------------------------------------------------11-12-14-|
--------------------------------------------------------------|
--------------------------------------------------------------|


   |--3--|  |--3--|  |--3--|  |--3--|  |--3--|  |--3--|  |--3--|  |--3--|  
   S  S  S  S  S  S  S  S  S  S  S  S  S  S  S  S  S  S  S  S  S  S  S  S  
--------------------------------------------------------------------------|
--------------------------------------------------------------------------|
--11----------------13----------------14----------------16----------------|
-----14-13-13-14-16----16-14-14-16-18----18-16-16-18-19----19-18-18-19-21-|
--------------------------------------------------------------------------|
--------------------------------------------------------------------------|


   Q     H.             
----------------------||
----------------------||
--18~-----------------||
----------------------||
----------------------||
----------------------||




Duration Legend
---------------
W - whole
H - half
Q - quarter
E - 8th
S - 16th
T - 32nd
X - 64th
. - note dotted
|-n-|  - n-tuplets


Tablature Legend
----------------
L - tied note
x - dead note
g - grace note
(n) - ghost note
> - accentuded note
NH - natural harmonic
AH - artificial harmonic
TH - tapped harmonic
SH - semi harmonic
PH - pitch harmonic
h - hammer on
p - pull off
b - bend
br - bendRelease
pb - preBend
pbr - preBendRelease
brb - bendReleaseBend
\n/ - tremolo bar dip
\n - tremolo bar dive
-/n - tremolo bar Release up
/n\ - tremolo bar inverted dip
/n - tremolo bar return
-\n - tremolo bar Release down
S - shift slide
s - legato slide
/ -  slide into from below or out of upwards
\ -  slide into from above or out of downwards
~ - vibrato
W - wide vibrato
tr - trill
TP - tremolo picking
T - tapping
S - slap
P - pop
< - fade in
^ - brush up
v - brush down
Tap to rate this tab
 
# A B C D E F G H I J K L M N O P Q R S T U V W X Y Z