Song name
# A B C D E F G H I J K L M N O P Q R S T U V W X Y Z

Paul Gilbert - I Am Satan chords

Highlighted       Show chord diagrams
I am Satan - Paul gilbert
----------------------------------------
Chords
----------------------------------------
    C (x3201x)
Cmaj7 (x3200x)
  Am7 (x0201x)
   Em (022000)
    G (320003)
    F (x0321x)
  Am6 (xx4555)

------------------------------------------
Intro Riff
------------------------------------------

|--------------------------------------------|-------------------------------------|
|--------------------------------------------|-------------------------5---6-6-5---|
|-5---5-5-5-5--14--12---5-5-5-5-5---14---12--|-5---5-5-5-5--14--12-----5---5-5-5---|
|-5---5-5-5-5--14--12---5-5-5-5-5---14---12--|-5---5-5-5-5--14--12-----5---5-5-5---|
|-3---3-3-3-3--12--10---3-3-3-3-3---12---10--|-3---3-3-3-3--12--10-----3---3-3-3---|
|--------------------------------------------|-------------------------------------|

------------------------------------------
Verse 1
------------------------------------------

    C     Cmaj7  C   Cmaj7
Hey Judy

       Am7
Do you remember how we met

      Em
You say you'll never forget

           G
'Cause you love me


      C         Cmaj7    C   Cmaj7
Well I love you too

      Am7  
And I'm good for you

           Em
But I'm afraid to ruin our plans

         G
When you find out who I am

---------------------------------------
chorus
---------------------------------------

          F             G
I am satan   (I am satan)

       Am7                        C
I rule darkness and fight off the day

          F             G
I am satan   (I am satan)
              
              Dm7
You may wanna run

                    G
But I hope you will stay

          F             G
I am satan   (I am satan)

            Am7                  C
This year's king of the underworld

             Am6
But there's nothing I can do

        F          G
And I'd feel oh so blue without you

-------------------
Intro Riff
-------------------

|--------------------------------------------|-------------------------------------|
|--------------------------------------------|-------------------------5---6-6-5---|
|-5---5-5-5-5--14--12---5-5-5-5-5---14---12--|-5---5-5-5-5--14--12-----5---5-5-5---|
|-5---5-5-5-5--14--12---5-5-5-5-5---14---12--|-5---5-5-5-5--14--12-----5---5-5-5---|
|-3---3-3-3-3--12--10---3-3-3-3-3---12---10--|-3---3-3-3-3--12--10-----3---3-3-3---|
|--------------------------------------------|-------------------------------------|

----------------------------
Verse 2
----------------------------

(The chords for the next verse and chorus are the same as before)

Hey Judy
Can you imagine how I feel
Can't we try to make a deal
'Cause you love me

And I love you too
I'm so good for you
But will you condemn me to hell
When you know why I dance so well

----------------------------------
chorus
----------------------------------

I am satan (i am satan)
I rule darkness and fight off the day
I am satan (i am satan)
You may wanna run
But I hope you will stay
I am satan
This year's king of the underworld
But there's nothing I can do
And I'd feel oh so blue without you

-------------------------------------------
Bridge
-------------------------------------------

|-----------------------------------------|
|-----------------------------------------|
|-----------------------------------------|
|-----5------4-----5------4------5-----4--|
|---3------3-----3------3-----------------|
|-2------2-----2------2------2-----2------|--- this here is the diminished picking riff
                                               played at the start and after the first 3 
                                        lines of the bridge (sounds best palm muted quite heavily)

C
You run as fast as you could go -- (Diminished picking riff)

C
You need not fear me I won't follow -- (Diminished Picking riff)

C
You'll always have respect from me -- (Diminished picking riff)

C
Now what do I see

       G
You're walking back to me

-----------------------------------------
Chorus + Outro
-----------------------------------------

Final chorus - same chords as the others

I am satan (i am satan)
I rule darkness and fight off the day
I am satan (i am satan)
You may wanna run
But I hope you will stay
I am satan
This year's king of the underworld
And there's so much we can do
So let's go to Disneyland together

Then play the intro riff with a nice big C powerchord at the end :)

------------------------------------------

And on the "Burning Organ" version of this track we have a big HEAVY METAL outro!!!

|-----------------------------------------------------------------|
|------------------3--1-------------------------------------------|
|---------------0--------1----------------------------------------| 
|-5-------0--1------------------6--6--6----6--6--6---6----6----6--|
|-3----3------------------------4--4--4----4--4--4---4----4----4--|
|-----------------------------------------------------------------|

just repeat this till the end with a few varying rhythms of the C# 
power-chord chugging at the end, 

Have fun playing this killer tune!
Tap to rate this tab
 
# A B C D E F G H I J K L M N O P Q R S T U V W X Y Z