Song name
# A B C D E F G H I J K L M N O P Q R S T U V W X Y Z

Paul Gilbert - To Be With You tab

I've been looking for the tab to Paul's metal version of To Be With You,
which is also the one he played in Guitar Wars. So, here you go.
Sorry if there're any mistakes. Any questions?
Contact me through Facebook. dkz_neverthesameguy@hotmail.com Rock on! \m/

  PM------------------|            PM------------------|         AH~
e|---------0-1-----3-3------------|---------0-1-----3-3--------------|
B|-----1-------1------------------|-----1-------1--------------------|
G|-------2-------2----------------|-------2-------2------------------|
D|---2----------------------------|---2------------------------------|
A|-0---------------------3---2--3-|-0---------------------3---2--3---|
E|---------------------3----------|---------------------3------------|

  PM------------------|            PM------------------|         AH~
e|---------0-1-----3-3------------|---------0-1-----3-3--------------|
B|-----1-------1------------------|-----1-------1--------------------|
G|-------2-------2----------------|-------2-------2------------------|
D|---2----------------------------|---2------------------------------|
A|-0---------------------3---2--3-|-0---------------------3---2--3---|
E|---------------------3----------|---------------------3------------|

  PM-----------------------------------------------------|
e|---------0---------------0---------------1-------------------------|
B|-------1---1-----------1---1---------------------------------------|
G|-----2-------2-------0-------0---------2---2----------0------------|
D|---2-----------2---2-----------2-----3-------3-----2---------------|
A|-0---------------3-----------------3-----------3-3------3---2-3----|
E|---------------------------------1---------------------------------|

  PM-----------------------------------------------------
e|---------0---------------0---------------1-------------------------|
B|-------1---1-----------1---1----------------------------1----------|
G|-----2-------2-------0-------0---------2---2----------0-0----------|
D|---2-----------2---2-----------2-----3-------3-----2----2----------|
A|-0---------------3-----------------3-----------3-3------3----------|
E|---------------------------------1---------------------------------|

  PM------|      PM-----|      PM-------------------------------------
e|---------1-----------------|----------1-----------------0----------|
B|---------1-----------1-1---|-------------------------1----1--------|
G|-------2-2---------0---0---|--------2---2---------0---------0------|
D|-----3---3-------2-----2---|------3-------3-----2-------------2----|
A|---3-----3-----3-------3---|----3-----------3-3--------------------|
E|-1-------1-----------------|--1------------------------------------|

  --------------------------------|
e|-------------------------------------------------------------------|
B|--6-5---5----------6-5---5-----------------------------------------|
G|------5---5---5--------5---5---5-----------------------------------|
D|------------5----------------5-------------------------------------|
A|----------------3----------------3---------------------------------|
E|-------------------------------------------------------------------|


e|-------------------------------------------------------------------|
B|-------------------------------------------------------------------|
G|-5-5-5-5-5-5-5------4-4-4-4-4-4-4------9-9-9-9-9-9-8---------------|
D|-5-5-5-5-5-5-5------5-5-5-5-5-5-5------9-9-9-9-9-9-9---------------|
A|-3-3-3-3-3-3-3------5-5-5-5-5-5-5------7-7-7-7-7-7-7---------------|
E|-3-3-3-3-3-3-3------3-3-3-3-3-3-3------7-7-7-7-7-7-7---------------|

     PM---|     PM----|     PM-----|   PM------|  p
e|-------------------------------------------------------------------|
B|-------------5-------5---7--------7-----------10-9-----------------|
G|-9-------9---6-------6---8--------8-------9--------9---------------|
D|-9-------9---7-------7---9--------9-----9---9----------------------|
A|-7-------7----------------------------7----------------------------|
E|---0-0-0-------0-0-0--------0-0-0----------------------------------|

    PM----|     PM----|     PM----|
e|-------------------------------------------------------------------|
B|-------------5-------5---7-------7---9--10-9--10-9\----------------|
G|-7-------9---6-------6---8-------8---9--9--9--9--9\----------------|
D|-7-------7---7-------7---9-------9---9--9--9--9--9\----------------|
A|-9-------7---------------------------7--7--7--7--7\----------------|
E|---0-0-0-------0-0-0-------0-0-0-----------------------------------|

   T     T         T     T         T     T         T     T  
e|-------------------------------------------------------------------|
B|-12-5--12-5-9-5--12-5--12-5-9-5--12-5--12-5-9-5--12-5--12-5-9-5----|
G|-------------------------------------------------------------------|
D|-------------------------------------------------------------------|
A|-------------------------------------------------------------------|
E|-------------------------------------------------------------------|

   T     T         T     T         T     T         T     T  
e|-------------------------------------------------------------------|
B|-12-5--12-5-9-5--12-5--12-5-9-5--12-5--12-5-9-5--12-5--12-5-9-5----|
G|-------------------------------------------------------------------|
D|-------------------------------------------------------------------|
A|-------------------------------------------------------------------|
E|-------------------------------------------------------------------|

   T     T         T     T         T     T         T     T  
e|-------------------------------------------------------------------|
B|-11-4--11-4-8-4--11-4--11-4-8-4--11-4--11-4-8-4--11-4--11-4-8-4----|
G|-------------------------------------------------------------------|
D|-------------------------------------------------------------------|
A|-------------------------------------------------------------------|
E|-------------------------------------------------------------------|

   T     T         T     T         T     T         T     T  
e|-------------------------------------------------------------------|
B|-13-6--13-6-9-6--13-6--13-6-9-6--13-6--13-6-9-6--13-6--13-6-9-6----|
G|-------------------------------------------------------------------|
D|-------------------------------------------------------------------|
A|-------------------------------------------------------------------|
E|-------------------------------------------------------------------|

   T     T         T     T         T     T         T     T  
e|-------------------------------------------------------------------|
B|-12-5--12-5-9-5--12-5--12-5-9-5--12-5--12-5-9-5--12-5--12-5-9-5----|
G|-------------------------------------------------------------------|
D|-------------------------------------------------------------------|
A|-------------------------------------------------------------------|
E|-------------------------------------------------------------------|

   T     T         T     T         T     T         T     T  
e|-------------------------------------------------------------------|
B|-12-5--12-5-9-5--12-5--12-5-9-5--12-5--12-5-9-5--12-5--12-5-9-5----|
G|-------------------------------------------------------------------|
D|-------------------------------------------------------------------|
A|-------------------------------------------------------------------|
E|-------------------------------------------------------------------|

   T     T          T     T          T     T          T     T  
e|-------------------------------------------------------------------|
B|-14-7--14-7-11-7--14-7--14-7-11-7--14-7--14-7-11-7--14-7--14-7-11-7|
G|-------------------------------------------------------------------|
D|-------------------------------------------------------------------|
A|-------------------------------------------------------------------|
E|-------------------------------------------------------------------|

    T         T         T         T         T         T  
e|--17-12-16--19-16-12--17-12-16--19-16-12--17-12-16--19-16-12-------|
B|-------------------------------------------------------------------|
G|-------------------------------------------------------------------|
D|-------------------------------------------------------------------|
A|-------------------------------------------------------------------|
E|-------------------------------------------------------------------|

    T         T         b
e|--17-12-16--19-16-12-----------------------------------------------|
B|----------------------15-------------------------------------------|
G|-------------------------------------------------------------------|
D|-------------------------------------------------------------------|
A|-------------------------------------------------------------------|
E|-------------------------------------------------------------------|


Tablature Legend

AH - artificial harmonic
p  - pull off
b  - bend
\  -  slide into from above or out of downwards
T  - tapping
~  - vibrato
Tap to rate this tab
 
# A B C D E F G H I J K L M N O P Q R S T U V W X Y Z