Paul Gilbert - Speed Picking In G Minor tab

-------------------------------------------------------------------------------
			     Speed Picking in G Minor - Paul Gilbert
-------------------------------------------------------------------------------
Tabbed by: roachsha
Email: roachsha@gmail.com

Tuning: Standard Tuning


e||---------18-22-18-20-22-20-18-17-18-21-18-17-------------------15-18-15-17|
B||-18-20-22-----------------------------------21-18-16\-15-16-18------------|
G||--------------------------------------------------------------------------|
D||--------------------------------------------------------------------------|
A||--------------------------------------------------------------------------|
E||--------------------------------------------------------------------------|

e|-18-17-15-13-15-17-15-13-----------------11-15-11-13-15-13-11-10-11-13-11--|
B|------------------------16-15-13-11-13-15----------------------------------|
G|---------------------------------------------------------------------------|
D|---------------------------------------------------------------------------|
A|---------------------------------------------------------------------------|
E|---------------------------------------------------------------------------|

e|-10-----------------8-11-8-10-11-10-8-6-8-10-8-6------------4-8-4-6-8-10---|
B|---13-11-10-8-10-11-----------------------------10-8-6-4-6-8---------------|
G|---------------------------------------------------------------------------|
D|---------------------------------------------------------------------------|
A|---------------------------------------------------------------------------|
E|---------------------------------------------------------------------------|

e|-8-6--------------8-11-8-10-11-13-11-10-------------------11-15-11-13-15-17|
B|----10-8-6-8-10-11----------------------13-11-10-11-13-15------------------|
G|---------------------------------------------------------------------------|
D|---------------------------------------------------------------------------|
A|---------------------------------------------------------------------------|
E|---------------------------------------------------------------------------|

e|--15-13------------------15-18-15-17-18-20-18-17---------||--------18-22-18|
B|--------16-15-13-15-16-18-----------------------20-18-16-||18-20-22--------|
G|---------------------------------------------------------||----------------|
D|---------------------------------------------------------||----------------|
A|---------------------------------------------------------||----------------|
E|---------------------------------------------------------||----------------|

e|-20-22b24rb22-20-18--------------------------------------------------------|
B|--------------------22-20-18-----------------------------------------------|
G|-----------------------------20-19-17-15-----------------------------------|
D|-----------------------------------------12-10-12--------------------------|
A|---------------------------------------------------------------------------|
E|---------------------------------------------------------------------------|



************************************

| /   slide up
| \   slide down
| h   hammer-on
| p   pull-off
| ~   vibrato
| +   harmonic
| x   Mute note
| b   Bend
| pb  Pre-bend
| br  Bend release
| pbr Pre-bend release
| brb Bend release bend

************************************
Tap to rate this tab
 
# A B C D E F G H I J K L M N O P Q R S T U V W X Y Z