Song name
# A B C D E F G H I J K L M N O P Q R S T U V W X Y Z

Paul Gilbert - Marine Layer tab

artist:      PAUL GILBERT
song:        MARINE LAYER
album:     GET OUT OF MY YARD
tuning:       E-A-D-G-B-E

This is played on an acoustic. Hope you all enjoy.

                               Zakkrhoads69@yahoo.com

------------------1------------------------1-------|
------1-------1-----1----------1-------1-----1-----|
----0---0-------0-----0------0---0-------0-----0---|     verse 1
--3-------3----------------3-------3---------------|
3-----------3------------3-----------3-------------|
---------------------------------------------------|

------------------0-----------------------0--------|
------1-------1-----1---------1-------1-----1------|
----0---0-------0-----0-----0---0-------0-----0----|     verse 2
--2-------2---------------2-------2----------------|
3-----------3-----------3-----------3--------------|
---------------------------------------------------|
Repeat verses 1 and 2.

------------------0-----------------------0------------2-------3---2-----|
------1-------1-----1---------1-------1-----1--------3---3-----------3---|
----0---0-------0-----0-----0---0-------0-----0----2-------2-----2-----2-|
--2-------2---------------2-------2--------------0-----------0-----------|
0-----------0------------------------------------------------------------|
------------------------3-----------3------------------------------------|

--------------1---3------------0----------------0--------0------------|
------1-----1-------1------------1------------1------------1----------|
----2---2-------------2------0-----0--------2----------0-----0--------|
--3-------3-----3----------2---------2----3----------2---------2------|
-------------------------3-------------------------3------------------|
1--------------------------------------1------------------------------|

------1-0--------0---------------3-----------------------------------|
-------------------1-----------1-------------------------------------|
----2----------0-----0-------2------------------4-5-4----------------|
--3----------2---------2---3--------------3-5-7-------7-5-3----------|
-----------3------------------------3-5-7-------------------7-5------|
1------------------------1-------------------------------------------|
Repeat ALL.
----------------------------------2-------3---2--------------|
--------------------------------3---3-----------3------------|
------------4-5-4-------------2-------2-----2-----2----------|
------3-5-7-------7-5-3-----0-----------0--------------------|
3-5-7-------------------7-6----------------------------------|
-------------------------------------------------------------|

------1-------3---1------------2-------3---2-----------0-------3---1-----|
--------1-----------1--------3---3-----------3-----------1-----------1---|
----2-----2-----------2----2-------2-----2-----2-----2-----2-----------2-|
--3-------------3--------0-----------0-------------3---------3---3-------|
-------------------------------------------------------------------------|
1-----------1------------------------------------1-----------------------|

------0----------------0--------0-------------1-0-------0---------------3-|
--------1------------1------------1-----------------------1-----------1---|
----0-----0--------2----------0-----0-------2---------0-----0-------2-----|
--2---------2----3----------2---------2---3---------2---------2---3-------|
3-------------------------3-----------------------3-----------------------|
---------------1------------------------1-----------------------1---------|

-----------------------|
-----------------------|
------------4-5-4------|
------3-5-7-------7-5--|
3-5-7------------------|
-----------------------|

------------------1------------------------1-------|
------1-------1-----1----------1-------1-----1-----|
----0---0-------0-----0------0---0-------0-----0---|     verse 1
--3-------3----------------3-------3---------------|
3-----------3------------3-----------3-------------|
---------------------------------------------------|

------------------0-----------------------0--------|
------1-------1-----1---------1-------1-----1------|
----0---0-------0-----0-----0---0-------0-----0----|     verse 2
--2-------2---------------2-------2----------------|
3-----------3-----------3-----------3--------------|
---------------------------------------------------|
Repeat verses 1 and 2.

------------------0-----------------------0------------2-------3---2-----|
------1-------1-----1---------1-------1-----1--------3---3-----------3---|
----0---0-------0-----0-----0---0-------0-----0----2-------2-----2-----2-|
--2-------2---------------2-------2--------------0-----------0-----------|
0-----------0------------------------------------------------------------|
------------------------3-----------3------------------------------------|

--------------1---3------------0----------------0--------0-----------|
------1-------------1------------1------------1------------1---------|
----2---2-------------2------0-----0--------2----------0-----0-------|
--3-------3-----3----------2---------2----3----------2---------2-----|
-------------------------3-------------------------3-----------------|
1-----------1---------------------------1----------------------------|

-------1-3-------0---------------3-0--------0---------------1---------|
-------------------1--------------------------1-----------1-----------|
----2----------0-----0-------2-----------0------0-------2-------------|
--3----------2---------2---3-----------2----------2---3---------------|
-----------3-------------------------3--------------------------------|
1------------------------1--------------------------1-----------------|

-------0---------------0-------0-------------3-0-|
---------1-----------1-----------1---------------|
----0------0-------2---------0-----0-------2-----|
--2----------2---3---------2---------2---3-------|
3------------------------3-----------------------|
---------------1-----------------------1---------|

------0---------------1---------------------------------0--|
--------1-----------1-----------------------------------1--|
----0-----0-------2-----------------4-5-4---------------0--|
--2---------2---3-------------3-5-7-------7-5-353-------2--|
3-----------------------3-5-7---------------------7-5---3--|
--------------1--------------------------------------------|
Tap to rate this tab
 
# A B C D E F G H I J K L M N O P Q R S T U V W X Y Z