Guitaretab - guitar tabs
Song name
# A B C D E F G H I J K L M N O P Q R S T U V W X Y Z

Paul Gilbert - Rusty Old Boat tab

Rusty Old boat 
Transcribbed by: Max La Menace

I don't write the artificials harmonic in the intro riff but you can do them sometimes. 

e||-----------------------------------------------------------|
B||-----------------------------------------------------------|
G||-x-x-x-x-x-x-x-x-x-x-x-x-x-7-9-x-x-x-x-x-x-x-x-x-x-x-x-----|
D||-x-x-x-x-x-x-x-x-x-x-x-x-x-x-x-x-x-x-x-x-x-x-x-x-x-x-x-----|  1 2 3     
A||-----------------------------------------------------------|  Bass
E||-----------------------------------------------------------|  Slide

              PM-------|        PM------|
|------------------------------------------|
|------------------------------------------|
|------------------------------------------|
|-/9-7-5-7-5--------------x----------------|
|------------7-------2-5--x-/7---x---------|
|--------------0h3h5-----------3-x-5-5s7\--|

                 PM----------------|
|------------------------------------------|
|------------------------------------------|
|------------------------------------------|
|-x-/9-7-5-7-5-----------------------------|
|-x------------7-------2-5-5-5-5-5-5-5-/4--|
|----------------0h3h5---------------------|

               PM------|        PM  PM-|
|--------------------------------------------------------|
|--------------------------------------------------------|
|------------------------------------------0-------------|
|-/9-7-5-7-5--------------x------------------2p0---------|
|------------7-------2-5--x-/7---x---------------2p0-----|
|--------------0h3h5-----------3-x-5-5s7\------------3-0-|

  PM---|    PM---|    PM----|     PM-----|
|---------------------------------------------------|
|---------------------------------------------------|
|---------------------------------------------------|
|---------------------------------------------------|
|-------2-5-------5-7--------7-10---------10-12-10\-|
|-0h3h5-----0h5h7-----0h7h10------0h10h12-----------|

              PM---|            PM--|
|------------------------------------------|
|------------------------------------------|
|------------------------------------------|
|-/9-7-5-7-5--------------x----------------|
|------------7-------2-5--x-/7---x---------|
|--------------0h3h5-----------3-x-5-5s7\--|

                 PM-----------------|
|------------------------------------------|
|------------------------------------------|
|---/7-6-4-6-4-----------------------------|
|-x------------5---------------------------|
|-x--------------------2-5-5-5-5-5-5-5-/4--|
|----------------0h3h5---------------------|

               PM------|            PM-|
|--------------------------------------------------------|
|--------------------------------------------------------|
|------------------------------------------0-------------|
|-/9-7-5-7-5--------------x------------------2p0---------|
|------------7-------2-5--x-/7---x---------------2p0-----|
|--------------0h3h5-----------3-x-5-5s7\------------3-0-|

  PM---|    PM---|    PM----|     PM-----|
|---------------------------------------------------|
|---------------------------------------------------|
|---------------------------------------------------|
|---------------------------------------------------|
|-------2-5-------5-7--------7-10---------10-12-10\-|
|-0h3h5-----0h5h7-----0h7h10------0h10h12-----------|


|------------------------------7-9---------------------7-9-7h9p7----7-10-|
|----------/8h10-8s7----7h8h10-----7s8h10-8s7---7h8h10-----------10------|
|-14\-2--------------9------------------------9--------------------------|
|-14\-2------------------------------------------------------------------|
|-12\-0------------------------------------------------------------------|
|------------------------------------------------------------------------|

|-9h10p9p7----7------------------------------|
|----------10---10-8h10p8p7---7h8h10---------|
|---------------------------9--------9b11~~~-|
|--------------------------------------------|
|--------------------------------------------|
|--------------------------------------------|


      PM   PM---------------------------------------|
|--------------------------------------------------------------------------|
|--------------------------------------------------------------------------|
|-/16\-------------------------------------------------------8-------------|
|-/16\---9--------------------------------------------7h9h11---11-9-7-9-11-|
|-/14\-9-9---------7-------------7h9h11-7h11-9-7-9-11----------------------|
|------7-7--7h9h11---11p9p7h9h11-------------------------------------------|

|--------------------------------9-11h12p11p9-11\x/p0-|
|--------9h10h12p10p9----9h10h12----------------------|
|-8h9h11--------------11------------------------------|
|-----------------------------------------------------|
|-----------------------------------------------------|
|-----------------------------------------------------|

                  
||--14p10-14p10----10--14p10-14p10----10--||
||--------------13-----------------13-----||
||*--------------------------------------*||
||*--------------------------------------*||
||----------------------------------------||
||----------------------------------------||

||--15p10-15p10----10--15p10-15p10----10--||
||--------------13-----------------13-----||
||*--------------------------------------*||
||*--------------------------------------*||
||----------------------------------------||
||----------------------------------------||                

||--17p10-17p10----10---17p10-17p10----10--||
||--------------13------------------13-----||
||*---------------------------------------*||
||*---------------------------------------*||
||-----------------------------------------||
||-----------------------------------------||

||--17p10-17p10----10--||-17b19~~\-|
||--------------13-----||----------|
||*-------------------*||----------|
||*-------------------*||----------|  
||---------------------||----------|
||---------------------||----------|


|-17b19-17-15-17-15-----------------------------|
|-------------------17~~----15------------------|
|-----------------------/16----16-15-14~~-------|
|-----------------------------------------17-14-|
|-----------------------------------------------|
|-----------------------------------------------|

|-------12-15p12----12---------------------------------------------------|
|-12h15----------15----15p12-15p12----12------------------------------8~-|
|----------------------------------14----14p12-14p12----12------------8~-|
|----------------------------------------------------14----14-12-14\--7~-|
|---------------------------------------------------------------------8~-|
|------------------------------------------------------------------------|


PM-----------------------------|
|-----------------------------------------------------------|
|-----------------------------------------------------------|
|-----------------------------------------7--7-9--9-9s12-12-|
|-/9-7-5-7-5------------------5--7-7s9--9-------------------|
|------------7-------2-5-5s7--------------------------------|
|--------------0h3h5----------------------------------------|

|-------------------------------------------------------------------|
|---------------------------------12-15-15-15-15-15-15-15-13b14b15--|
|-14b16-14-12-14-12---------12h14-----------------------------------|
|-------------------14~~-14-----------------------------------------|
|-------------------------------------------------------------------|
|-------------------------------------------------------------------|

Guitar solo
|-------------------------------------------17p14----------------------|
|-15-14b15r14p12----------12----------------------15-------------------|
|----------------14p12-14----12----14p11-------------14p11-------------|
|-------------------------------14-------12----------------12----------|
|-------------------------------------------------------------12p9-----|
|------------------------------------------------------------------10--|

|----------------10-----------10h12h14-12h14p12p1014h15p14p12----|
|--------------------------------------------------------------15-|
|-14p11----11h14----14p11h14--------------------------------------|
|-------12--------------------------------------------------------|
|-----------------------------------------------------------------|
|-----------------------------------------------------------------|

|-12----------------------------12-------------------------------------|
|----15-13h15p13p12----12h13h15----15-13h15p13p12----12----------------|
|-------------------14----------------------------15----15-14-12-14-15-|
|----------------------------------------------------------------------|
|----------------------------------------------------------------------|
|----------------------------------------------------------------------|

|----------12----------------12h14h15-14h15p14p12----12-15-14h15p14p12----|
|-12h14h15----15-14-12-14-15----------------------15-------------------15-|
|-------------------------------------------------------------------------|
|-------------------------------------------------------------------------|
|-------------------------------------------------------------------------|
|-------------------------------------------------------------------------|

                                                 Rake
|-------------------------1213b1515r13b15r13b15----------------------|
|-12-15-14h15p14p12----12----------------------------13b16-15r13b15r13-|
|-------------------15------------------------------x------------------|
|--------------------------------------------------x-------------------|
|-------------------------------------------------x--------------------|
|----------------------------------------------------------------------|
      							 
|-----------------------------------------------------------------------14-|
|----------------------------14b15--15-12----------------------12-15-17----|
|----12b14=14=14=14b16--12~~-15b19--------15p14-12----12-14-15-------------|
|--x---------------------x-------------------------14----------------------|
|-x------------------------------------------------------------------------|
|--------------------------------------------------------------------------|

|-19b21b22~~----19b22~~~~--21b22-21~~~~--------------|
|--------------(19)---------------------8------------|
|-----------------------------------------9p7--------|
|---------------------------------------------9p7----|
|-------------------------------------------------10-|
|----------------------------------------------------|

|----------------------------------------------------------------------|
|----------------------------------------------------------------------|
|-------------------------14----------------14h16h19p16----------------|
|----------------14h16h17----17-16-14-16-17-------------17-16-14-16-17-|
|-7s10-12s14h17--------------------------------------------------------|
|----------------------------------------------------------------------|

                       Tr picking-------------------|
|-------------------17-------------------------19-19-19-22p19-------|
|----------17h19h20----19-19-19s21-21-21-22-22----------------22p20-|
|-14h16s20----------------------------------------------------------|
|-------------------------------------------------------------------|
|-------------------------------------------------------------------|
|-------------------------------------------------------------------|

|-19h22p19-------17h19h22p19p17----17h19h22p19-22-22b24~~-21~~------|
|----------22p20----------------20----------------------------------|
|-------------------------------------------------------------------|
|-------------------------------------------------------------------|
|-------------------------------------------------------------------|
|-------------------------------------------------------------------|
[ Tab from: http://www.guitaretab.com/p/paul-gilbert/84093.html ]
|-17----------------17-19h21p19h21p19----------------------------|
|----21p19p17-19-21-------------------21p19p17-16s14----------14-|
|----------------------------------------------------16p14-16----|
|----------------------------------------------------------------|
|----------------------------------------------------------------|
|----------------------------------------------------------------|

|--------------------------------------------------------------------|
|----------15-14h15p14-----------------------------------------------|
|-16p14-16-------------16p14-16p14----14----------14-----------------|
|----------------------------------17----16p14-16--------------------|
|----------------------------------------------------17s19s17s16-14\-|
|--------------------------------------------------------------------|

PM-----------------------------------------------------------------------|  
|-------------------------------------------------------------------------|
|-------------------------------------------------------------------------|
|-----------------------------------------------------------8-------------|
|----------------------------------7-----------------7h9h11---11p9p7h9h11-|
|-9-----------7-------------7h9h11---11p9p7---7h9h11----------------------|
|-7-/7==h9h11---11-9-7-9-11-----------------11----------------------------|

|--------------------------------9---------------9h11p9h11\p0-|
|--------9h10h12p10p9----9h10h12---12-10-9-10-12--------------|
|-8h9h11--------------11--------------------------------------|
|-------------------------------------------------------------|
|-------------------------------------------------------------|
|-------------------------------------------------------------|

                 
||--14p10-14p10----10--||-14p10-14p10----10-14b15-|
||--------------13-----||-------------13----------|
||*-------------------*||-------------------------|
||*-------------------*||-------------------------|
||---------------------||-------------------------|
||---------------------||-------------------------|

||--15p10-15p10----10--15p10-15p10----10--||
||--------------13-----------------13-----||
||*--------------------------------------*||
||*--------------------------------------*||
||----------------------------------------||
||----------------------------------------||                

||--17p10-17p10----10--||-17p10-17p10----10--||
||--------------13-----||-------------13-----||
||*-------------------*||-------------------*||
||*-------------------*||-------------------*||
||---------------------||--------------------||
||---------------------||--------------------||

||--17p10-17p10-17p10-17p10-17p10-17p10-||-p0-|
||--------------------------------------||----|
||--------------------------------------||----|
||--------------------------------------||----|  
||--------------------------------------||----|
||--------------------------------------||----|


|-17b19-17-15-17-15-----------------------------|
|-------------------17~~----15------------------|
|-----------------------/16----16-15-14~~-------|
|-----------------------------------------17-14-|
|-----------------------------------------------|
|-----------------------------------------------|

|-------12-15p12----12---------------------------------------------------|
|-12h15----------15----15p12-15p12----12------------------------------8~-|
|----------------------------------14----14p12-14p12----12------------8~-|
|----------------------------------------------------14----14-12-14\--7~-|
|---------------------------------------------------------------------8~-|
|------------------------------------------------------------------------|

Keyboard solo
PM--------------------------------------------|        
|------------------------------------------------|
|------------------------------------------------|
|------------------------------------------------|
|-/9--7--5--7--5---------------------------------|
|------------------7--------2-5----/7------------|
|---------------------0h3h5-----------3--5-5s7\--|

PM---------------------------------------------|
|------------------------------------------------|
|------------------------------------------------|
|------------------------------------------------|
|---/9--7--5--7--5-------------------------------|
|-------------------7--------2-5-5-5-5-5-5-5-/4--|
|----------------------0h3h5---------------------|

PM--------------------------------------------------------|        
|------------------------------------------------------------|
|------------------------------------------------------------|
|----------------------------------------------0-------------|
|-/9-7-5-7--5---------------------------------2p0---------|
|-----------------7--------2-5---/7------------------2p0-----|
|--------------------0h3h5----------3--5-5s7\------------3-0-|

PM--------------------------------------------------|    
|---------------------------------------------------|
|---------------------------------------------------|
|---------------------------------------------------|
|---------------------------------------------------|
|-------2-5-------5-7--------7-10---------10-12-10\-|
|-0h3h5-----0h5h7-----0h7h10------0h10h12-----------|


PM--------------------------------------------|        
|------------------------------------------------|
|------------------------------------------------|
|------------------------------------------------|
|-/9--7--5--7--5---------------------------------|
|------------------7--------2-5----/7------------|
|---------------------0h3h5-----------3--5-5s7\--|

PM---------------------------------------------|
|------------------------------------------------|
|------------------------------------------------|
|------------------------------------------------|
|---/9--7--5--7--5-------------------------------|
|-------------------7--------2-5-5-5-5-5-5-5-/4--|
|----------------------0h3h5---------------------|

PM--------------------------------------------------------|        
|------------------------------------------------------------|
|------------------------------------------------------------|
|----------------------------------------------0-------------|
|-/9-7-5-7--5---------------------------------2p0---------|
|-----------------7--------2-5---/7------------------2p0-----|
|--------------------0h3h5----------3--5-5s7\------------3-0-|

PM--------------------------------------------------|    
|---------------------------------------------------|
|---------------------------------------------------|
|---------------------------------------------------|
|---------------------------------------------------|
|-------2-5-------5-7--------7-10---------10-12-10\-|
|-0h3h5-----0h5h7-----0h7h10------0h10h12-----------|


|-----------------17----------------17-19h21p19-19h21p19p17-|
|--------17h19h20----20-19-17-19-20-------------------------|
|-14\-2-----------------------------------------------------|
|-14\-2-----------------------------------------------------|
|-12\-0-----------------------------------------------------|
|-----------------------------------------------------------|

|----17-------------------------------------------------------|
|-20----20-19h20p19p17----------------------------------------|
|----------------------20-18p16----16s14----14----------------|
|-------------------------------19-------17----17s16-14-16s14-|
|-------------------------------------------------------------|
|-------------------------------------------------------------|

|-------------------|
|-------------------|
|-------------------|
|-12h14s11-7s6------|
|-------------8s7\-|
|-------------------|


|---------------------------------------------------------16----------|
|------------------------------------------------16h17h19----19-17\16-|
|-/16\----------------16----------------16h18h20----------------------|
|-/16\-9-----16h18h19----19-18-16h18h19-------------------------------|
|-/16\-9--19----------------------------------------------------------|
|------7--------------------------------------------------------------|

|-------16-17-19-17h19p17p16----16-17b19r17b19\-|
|-17-19----------------------19-----------------|
|-----------------------------------------------|
|-----------------------------------------------|
|-----------------------------------------------|
|-----------------------------------------------|


||--14p10-14p10----10--14p10-14p10----10--||
||--------------13-----------------13-----||
||*--------------------------------------*||
||*--------------------------------------*||
||----------------------------------------||
||----------------------------------------||

||--15p10-15p10----10--15p10-15p10----10--||
||--------------13-----------------13-----||
||*--------------------------------------*||
||*--------------------------------------*||
||----------------------------------------||
||----------------------------------------||                

||--17p10-17p10----10---17p10-17p10----10--||
||--------------13------------------13-----||
||*---------------------------------------*||
||*---------------------------------------*||
||-----------------------------------------||
||-----------------------------------------||

||--17p10-17p10----10--||-17b19~~-|
||--------------13-----||---------|
||*-------------------*||---------|
||*-------------------*||---------|  
||---------------------||---------|
||---------------------||---------|


|-17b19-17-15-17-15---------------------------------------------------|
|-------------------17~~----15----------------------------------------|
|-----------------------/16----16-15-14b15----------------------------|
|-------------------------------------------14-13-12b13---------------|
|-------------------------------------------------------x-13-11-10b12-|
|---------------------------------------------------------------------|

PM----------------------------------------------------|
|----------------------------------------------------------------------|
|----------------------------------------------------------------------|
|-------------------------------------------------------12----12-14p12-|
|-------------------------------------12----12-14-12-14----14----------|
|----------10----10-12-10-12-14-12-14----14----------------------------|
|-12-10-12----12-------------------------------------------------------|

|-------------------------12-0-0-0-0-0-0-14-0-0-0-0-0-0-|
|----12----12-12h15-12-15-------------------------------|
|-14----14----------------------------------------------|
|-------------------------------------------------------|
|-------------------------------------------------------|
|-------------------------------------------------------|

|-15-0-0-0-0-0-0-17-0-0-0-0-0-0-|
|-------------------------------|
|-------------------------------|
|-------------------------------|
|-------------------------------|
|-------------------------------|


|-17b19-17-15-17-15-----------------------------|
|-------------------17~~----15------------------|
|-----------------------/16----16-15-14~~-------|
|-----------------------------------------17-14-|
|-----------------------------------------------|
|-----------------------------------------------|

|-------12-15p12----12-----------------------------------------------|
|-12h15----------15----15p12-15p12----12-----------------------------|
|----------------------------------14----14p12-14p12----12-----------|
|----------------------------------------------------14----14-12-14\-|
|--------------------------------------------------------------------|
|--------------------------------------------------------------------|

|-13~-13---------------13\---|
|-13~----13------------13\---|
|-12~-------12----12---12\---|
|-11~----------11------11\---|
|----------------------------|
|----------------------------|

Tablature Legend
----------------
 h   - hammer-on
 p   - pull-off
 b   - bend
 pb  - pre-bend
 r   - bend release (if no number after the r, then release immediately)
 /\  - slide into or out of (from/to "nowhere")
 s   - legato slide
 S   - shift slide
 - natural harmonic
[n]  - artificial harmonic
n(n) - tapped harmonic
 ~   - vibrato
 tr  - trill
 T   - tap
 TP  - trem. picking
 PM  - palm muting
\n/  - tremolo bar dip; n = amount to dip
 \n  - tremolo bar down
 n/  - tremolo bar up
/n\  - tremolo bar inverted dip
 =   - hold bend; also acts as connecting device for hammers/pulls
 <> - volume swell (louder/softer)
 x   - on rhythm slash represents muted slash
 o   - on rhythm slash represents single note slash
Related for Rusty Old Boat tab