Song name
# A B C D E F G H I J K L M N O P Q R S T U V W X Y Z

Paul Gilbert - Scarafied tab

repeat this 2x:

E-----------------------------------------------------|
B-----------------------------------------------------|
G---------------------------------------------------7-|
D--------------------------------------------7-8-10---|
A-------------------5-----------------7-8-10----------|
E-3-3-3-3-3-3-5-6-8---3--3-3-3-6-8-10-----------------|

E------------------------------------------------------|
B------------------------------------------------------|
G------------------------------8-7-5-------------------|
D------------------------------------8-7-5-------------|
A-------------------5----------------------8-6-5-------|
E-3-3-3-3-3-3-5-6-8---3--3-3-3-------------------8-6-5-|

Play this once:

E-------------------------------------------------|
B-------------------------------------------------|
G------------------------------------------7-8-10-|
D-----------------------------------7-8-10--------|
A-------------------5----------8-10---------------|
E-3-3-3-3-3-3-5-6-8---3--3-3-3--------------------|

I do not know how the sweeps are played yet,but when i do I will post more than just the intro.
Everything above is picked, but if you have trouble doing that use hammer
ons for the scales.Something that helped me get the hang of it quickly was:

E-------------|
B-------------|
G-------------|
D-------------|
A-------5-----|
E-5-6-8---8-6-|

and repeat until you have it down quick.
Tap to rate this tab
 
# A B C D E F G H I J K L M N O P Q R S T U V W X Y Z