Song name
# A B C D E F G H I J K L M N O P Q R S T U V W X Y Z

Paul Gilbert - Rondo A Capriccio Rage Over A Lost Penny tab

Gtr I (E A D G B E)


  Q=180
 4/4
  Gtr I
  Q E E E E Q     S S  S S  Q   S S  S S  Q
|-----------7--|-10p8h10p8-----10p8h10p8----|
|-------8-8----|-----------10------------10-|
|---7-7--------|----------------------------|
|-9------------|----------------------------|
|--------------|----------------------------|
|--------------|----------------------------|


  Q E E E E Q    S S  S S  E  S S H
|-----------7-|-10p8h10p8-------7----|
|-------8-8---|-----------10-10---8--|
|---7-7-------|----------------------|
|-9-----------|----------------------|
|-------------|----------------------|
|-------------|----------------------|


  S  S S S S S S  S E E  Q     S  S  S  S  Q   S  S  S  S  Q
|-7-----------------7-7-12--|-12p11h12p11-----12p11h12p11-----|
|---10-8-7---7-8-10---------|-------------12--------------12--|
|----------9----------------|---------------------------------|
|---------------------------|---------------------------------|
|---------------------------|---------------------------------|
|---------------------------|---------------------------------|


  S  S S S S S S  S E E  Q   S  S S  S S  S  S S  Q  Q
|-7-----------------7-7-12-|-9-10-9-10-9-10----9-10-------|
|---10-8-7---7-8-10--------|----------------12------------|
|----------9---------------|------------------------------|
|--------------------------|------------------------12\---|
|--------------------------|------------------------------|
|--------------------------|------------------------------|


  Q  E E E E Q     S S  S S  Q   S S  S S  Q
|------------7--|-10p8h10p8-----10p8h10p8-----|
|--------8-8----|-----------10------------10--|
|----7-7--------|-----------------------------|
|-9-------------|-----------------------------|
|---------------|-----------------------------|
|---------------|-----------------------------|


  Q  E E E E Q     S S  S S  E  S S H
|------------7--|-10p8h10p8-------7---|
|--------8-8----|-----------10-10---8-|
|----7-7--------|---------------------|
|-9-------------|---------------------|
|---------------|---------------------|
|---------------|---------------------|


     S  S  S  S  S  S  S  S  S  S  S  S  S  S  S  S
||--19-17-------------------------------------------|
||o-------20-19-17-19-20-17-16-17-19-16-------------|
||--------------------------------------16-18-20-16-|
||--------------------------------------------------|
||o-------------------------------------------------|
||--------------------------------------------------|


   S  S  S  S S  S  S S S S  S S S  S  S S
|-----------------------------------------|
|-----------------------------------------|
|-12-14-16-12-9-11-12-9-8-9-11-8----------|
|--------------------------------9-11-13-9|
|-----------------------------------------|
|-----------------------------------------|


   S  S  S  S  S  S  S  S S  S  S S  S  S  S  S
|-----------------------------------------------|
|-----------------------------------------------|
|-----------------------------------------------|
|-----------------------------------------------|
|-10-12-14-10---------------------9-10-12-14-16-|
|-------------12-14-15-12-9-10-12---------------|


                                                       ~~~
   S  S  S  S  S  S  S  S  S  S  S  S  S  S  S  S      W
|-------------------------------13-14-15-16-17-18--||-19\-||
|----------------------14-15-17-------------------o||-----||
|-------------14-16-17-----------------------------||-----||
|----14-16-17--------------------------------------||-----||
|-17----------------------------------------------o||-----||
|--------------------------------------------------||-----||
Tap to rate this tab
 
# A B C D E F G H I J K L M N O P Q R S T U V W X Y Z