Song name
# A B C D E F G H I J K L M N O P Q R S T U V W X Y Z

Paul Haslinger - Pit Stop tab

------------------------------------------------------------------------------- 
			                    Paul Haslinger - Pit Stop - Crank I OST
-------------------------------------------------------------------------------
Tabbed by: Solced
Email: Solced@gmx.net

Tuning: E A D G B e


Intro - Some Flanger & Wah-Wah Sound i suppose

Intro sound could played on the empty E string or on 7th Fret of A 
For sure is that an E note is played at the beginning of the song.

 
e|--------------------------------------------------------------------------|
B|--------------------------------------------------------------------------|
G|--------------------------------------------------------------------------|
D|--------------------------------------------------------------------------|
A|------------------------------or--7-7-7-7-7-7-7-7-7-7-7-7-7-7-------------|
E|-0-0-0-0-0-0-0-0-0-0-0-0-0-0----------------------------------------------|


tremolo note

e|--------------------------------------------------------------------------|
B|--------------------------------------------------------------------------|
G|------9-9-9-9-9-9-9-9-9-9-9-9-9-9-9-9-9-9-9-9-9-9-9b10-b10-b10-b10--------|
D|--------------------------------------------------------------------------|
A|--------------------------------------------------------------------------|
E|--------------------------------------------------------------------------|

solo 1

e|--------------------------------------------------------------------------|
B|--------------------------------------------------------------------------|
G|------4p-4p-4p-4p--5p-5p-5p-5p-5p---7p-7p-7p-7p---5p--4p-4p-4p-4p---------|
D|--------------------------------------------------------------------------|
A|--------------------------------------------------------------------------|
E|--------------------------------------------------------------------------|

solo 2

e|--------------------------------------------------------------------------|
B|--------------------------------------------------------------------------|
G|------4p-4p-4p-4p--5p-5p-5p-5p-5p---7p-7p-7p-7p----9p-9p-9p-9b10-b10-b10--|
D|--------------------------------------------------------------------------|
A|--------------------------------------------------------------------------|
E|--------------------------------------------------------------------------|


Rhythm Chords

          C                      A                       e
e|--------------------------------------------------------------------------|
B|--------------------------------------------------------------------------|
G|--------------------------------------------------------------------------|
D|--------------------------------------------------------------------------|
A|--10-10-10-10-10-10-10-10--7-7-7-7-7-7-7--2-2-2-2-2-2-2-2-2-2-2-2-2-2-2-2-|
E|--8--8--8--8--8--8--8--8---5-5-5-5-5-5-5--0-0-0-0-0-0-0-0-0-0-0-0-0-0-0-0-|





Enjoy


Official Website

http://www.haslinger.com/
Tap to rate this tab
 
# A B C D E F G H I J K L M N O P Q R S T U V W X Y Z