Paul Jackson Jr - You Always Satisfy tab

Author/Artist: Paul Jackson, Jr.
Title: You Always Satisfy
Album: The Power of the String
Transcribed by: Doug Girard
Email: doug.girard@gmail.com

Solo begins at 3:17.  Enjoy!  It's a good one!

-|----------------------------------------------------------------------------|
-|---------------------------------15/17-15-17--------------------------------|
-|----11-12-14-14/16-12-14-12-------------------------------------------------|
-|-14-------------------------14----------------------------------------------|
-|----------------------------------------------------------------------------|
-|----------------------------------------------------------------------------|

-|----14-14h15----------------------------------------------------------------|
-|-17----------------15h17----------------------------------------------------|
-|-------------16----------14------14/16-13----------13-11--------------------|
-|------------------------------------------14-11-14--------------------------|
-|----------------------------------------------------------------------------|
-|----------------------------------------------------------------------------|

-|----------------------------------------------------------------------------|
-|----------------------------------------------------------------------------|
-|----11-11h12p11---------------14/16-14-12-----------------------------------|
-|-14-------------14/12\14---12-------------14-12-----------------------------|
-|------------------------------------------------14-13-12h13p12--------------|
-|---------------------------------------------------------------15-12-10-12--|

-|----------------------------------------------------------------------------|
-|----------------12-15--13-12----------h15-----------------------------------|
-|----------12-14--------------12-14/16-----\14-------------------------------|
-|-12h13h14-------------------------------------------------------------------|
-|----------------------------------------------------------------------------|
-|----------------------------------------------------------------------------|

-|----------------------------------------------------------------------------|
-|-------------------------------------------------15-15-17-17----------------|
-|----------12-14-12-------------12-12-14-14-16-16----------------------------|
-|-12h13h14----------14-12-14-14----------------------------------------------|
-|----------------------------------------------------------------------------|
-|----------------------------------------------------------------------------|

-|-14-15-14-------------------------------------------------------------------|
-|----------15-----15-17-15-------15------------------------------------------|
-|------------16------------16-14----16---------------------------------------|
-|----------------------------------------------------------------------------|
-|----------------------------------------------------------------------------|
-|----------------------------------------------------------------------------|

-|----------------------------------------------------------------------------|
-|----------------------------------------------------------------------------|
-|-14b16r14-12----------------------------------------------------------------|
-|-------------14-12----------------------------------------------------------|
-|-------------------14-13-12-------------------------------------------------|
-|----------------------------15-12-14----------------------------------------|

-|--------------------------------16------------------------------------------|
-|-----------------------------17---------------------------------------------|
-|--------------------16h17h19------------------------------------------------|
-|-------------16-------------------------------------------------------------|
-|----------16----------------------------------------------------------------|
-|-16h17h19-------------------------------------------------------------------|

-|-16-17-19-15------19-17-14------------15-15---------------------------------|
-|-------------17------------15---12-13---------------------------------------|
-|----------------------------------------------------------------------------|
-|----------------------------------------------------------------------------|
-|----------------------------------------------------------------------------|
-|----------------------------------------------------------------------------|

-|----------------------------------------------------------------------------|
-|-15p12----------------------------------------------------------------------|
-|-------15p14p12-------------------------------------------------------------|
-|----------------14-12-------------------------------------------------------|
-|----------------------14p13p12-10-------------------------------------------|
-|----------------------------------------------------------------------------|

-|----------------------------------------------------------------------------|
-|----------------------------------------------------------------------------|
-|-------------------14p12-14/16-12------12-11--------------------------------|
-|-12h14p12-------12---------------------------12-----------------------------|
-|----------14------------------------------------14--------------------------|
-|----------------------------------------------------------------------------|

-|----------------------------------------------------------------------------|
-|----------------------------------------------------------------------------|
-|----------12-14-16-14-12-------11-12----------------------------------------|
-|-12h13h14----------------14-12-------14-------------------------------------|
-|----------------------------------------------------------------------------|
-|----------------------------------------------------------------------------|

-|-15-15-12-12----------------------------------------------------------------|
-|-------------15-15-12-12----------------------------------------------------|
-|-------------------------14-14-12-14----------------------------------------|
-|-------------------------------------14-------------------------------------|
-|----------------------------------------------------------------------------|
-|----------------------------------------------------------------------------|
Tap to rate this tab
 
# A B C D E F G H I J K L M N O P Q R S T U V W X Y Z