Song name
# A B C D E F G H I J K L M N O P Q R S T U V W X Y Z

Paul Kalkbrenner - Train tab

#----------------------------------PLEASE NOTE---------------------------------#
#This file is the author's own work and represents their interpretation of the #
#song. You may only use this file for private study, scholarship, or research. #
#------------------------------------------------------------------------------##

Artist: Paul Kalkbrenner
Song: Train
Album: Berlin Calling (2008)
Tabbed by: Michiel Rombouts (michielrombouts@**remove**gmail.com)


Not really a song for guitar, but give it a go. The tune pretty much goes on like this
throughout the song.


                     C                                   Am

|---0-------------||--------0--------|--------0--------|--------0----3h0-|--------0--------|
|-1---1(let ring)-||-----1----1------|-----1----1------|-----1----1------|-----1----1------|
|-----------------||-----------------|-----------------|-----------------|-----------------|
|-----------------||-----------------|-----------------|-----------------|-----------------|
|-----------------||-3-3-3-3-3-3-3-3-|-3-3-3-3-3-3-3-2-|-0-0-0-0-0-0-0-0-|-0-0-0-0-0-0-0---|
|-----------------||-----------------|-----------------|-----------------|---------------3-|


  F                 G                 C                 C

|--------0--------|--------0--------|--------0----3h0-|-----------------|
|-----1----1------|-----1----1------|-----1----1------|-----------------|
|-----------------|-----------------|-----------------|-----------------|
|-----------------|-----------------|-----------------|-----------------|
|-----------------|-----------------|-3-3-3-3-3-3-3-3-|-3-3-3-3-3-3-3-2-|
|-1-1-1-1-1-1-1-1-|-3-3-3-3-3-3-3-3-|-----------------|-----------------|



That's it! Cheers!
Tap to rate this tab
 
# A B C D E F G H I J K L M N O P Q R S T U V W X Y Z