Song name
# A B C D E F G H I J K L M N O P Q R S T U V W X Y Z

Paul Kelly - Peace tab

"Peace" by Paul Kelly

Intro/Verse (Played throughout song)

e|-------------------------------|
B|-------------------------------|
G|-----4-------2-------7-------4~|
D|---4-------2-------7-----------|
A|-2-------0-------5---------5---|
E|-------------------------3-----|

*Let all notes ring.

Main Riff (0:13)

e|-----------------------------------------|
B|-----------------------------------------|
G|-----------------------------------------|
D|-----------------------------------------|
A|-2-----2--4--5---4---0-----0-0-0-2-2-2-2-|
E|-----------------------------------------|

e|--------------------------|
B|--------------------------|
G|--------------------------|
D|--------------------------|
A|-2-----2--4--5---4---5-5--|
E|--------------------------|

*Let all notes ring.

Solo (1:09)

e|-----------------------------------|
B|-----------------------------------|
G|-2-2-2-2/4---4-4-4-4--2-2-2--4-4-4-|
D|-----------------------------------|
A|-----------------------------------|
E|-----------------------------------|

e|---------------------------|
B|---------------------------|
G|-7-7-7/6---6-6-6/4---4-4-4-|
D|---------------------------|
A|---------------------------|
E|---------------------------|

e|-------------------------------------------|
B|-------------------------------10-10-10-12~|
G|-4-6---6/9---7-9---9/11---11~--------------|
D|-------------------------------------------|
A|-------------------------------------------|
E|-------------------------------------------|

e|----------------------------------------|
B|----------------------------------------|
G|-4---4-6-7---7-6---4-2---2/4---4--4-4-4-|
D|----------------------------------------|
A|----------------------------------------|
E|----------------------------------------|

e|---------------------------------|
B|---------------------------------|
G|-4---4-6-7-6-7---7/9---9/11---11~|
D|---------------------------------|
A|---------------------------------|
E|---------------------------------|

e|-------------------------|
B|-10-10-10-10-12-12-12-12~|
G|-------------------------|
D|-------------------------|
A|-------------------------|
E|-------------------------|

Lead Riff (2:05)

e|-----||----------------------||-----------------|
B|-----||----------------------||-----------------|
G|-7-7-||-9-9-9-11-11-11-11-11-||-9/7---7---7-7-7-|
D|-----||----------------------||-----------------|
A|-----||----------------------||-----------------|
E|-----||----------------------||-----------------|
        |                      |
        | Repeat several times |

Ending Riff (2:35)

e|---------------------------|
B|---------------------------|
G|-4-4-4h6-6-6-6h7-7-7-7-7-7-|
D|---------------------------|
A|---------------------------|
E|---------------------------|

Legend:
/ = Slide
~ = Vibrato
h = Hammer-on

Tabbed by Jules Zappa
Tap to rate this tab
# A B C D E F G H I J K L M N O P Q R S T U V W X Y Z