Song name
# A B C D E F G H I J K L M N O P Q R S T U V W X Y Z

Paul Kelly - Leaps And Bounds chords

Highlighted       Show chord diagrams
Paul Kelly and The Coloured Girls
Leaps and Bounds.

Standard Tuning.
E-A-D-G-B-E

lead -
e--------2-----2---2------------------|
B---0--------------------5----5-----0-|
G----4-4---4-4---4---4-4---4-4--4-4---|
D-------------------------------------|
A-------------------------------------|
E-------------------------------------|

bass at 13.0 seconds

G|-------------------6-4----------------------6-4-|
D|--------6-4---2-2----------------6-4---2-2------|
A|--2-2----------------------2-2------------------|
E|------------------------------------------------|

Rhythm guitar.
B --- E


B
I'm high on the hill
E
Looking over the bridge
B
To the M.C.G.
E
And way up on high
B
The clock on the silo
E
Says eleven degrees

B          E
I remember I remember
B
I'm breathing today
E
The month of May
B               E
All the burning leaves
B
I'm not hearing a sound
E
My feet don't even
B
Touch the ground

B          E
I remember I remember

B              E
I go leaps and bounds
G#            F#
Down past the river
E
And across the playing fields
G#             F#
The fields all empty
E
Only for the burning leaves

B            E
I remember I remember
B             E
I go leaps and bounds
B           E
I remember everything

someone please tab solo.
Tap to rate this tab
# A B C D E F G H I J K L M N O P Q R S T U V W X Y Z