Song name
# A B C D E F G H I J K L M N O P Q R S T U V W X Y Z

Paul Kelly - They Thought I Was Asleep tab

this isn't the whole song but most of it is pretty accurate.

capo on 2nd fret

(relative to capo):


e |-------------|x1 |-------------| x7
B |----1-------1|   |-------1-----|
G |--------0----|   |-----------0-|
D |----2-----2--|   |---2----2----|
A |-3-----------|   |-3-----------|
E |------3------|   |-----3-------|


|----------------------------------------------------|
|----1--------1--------0---------------0----------0--|
|---------2---------------2--------2----------2------|
|---0h2-----2------2----2------2-----2-----2----2----|
|-0-------------0-----------0------------0-----------|
|-------0-------------0----------0-----------0-------|

repeat start x2


-------------------------0-----------------------1---------------1-----|
-1-----------1-------1-------1-------1-------3-------3-------3-------3-|
---0h2---2-------2---------------2-------2---------------2-------------|
-------3---3---3---3---3---3---3---3---0---0---0---0---0---0---0---0---|
-----------------------------------------------------------------------|
-----------------------------------------------------------------------|


-----------0----------------3-------3-------3-------3----|
---1------------1---1---------3-------3-------3-------0--|
-------0------0---0--------------------------------------|
---2-----2-----2---2-----0---0---0---0---0---0---0---0---|
-3-----------3---3---------------------------------------|
-----3-----------------3---3---3---3---3---3---3---3-----|

|----------------------------------------------------|
|----1--------1--------1-------1--0--------0---------|
|---------2-------------2p0-0h2-----0--------0-------|
|---0h2-----2------2--------------------0---0--------|
|-0-------------0--------------3---3-----------------|
|-------0-------------0-----1----1----3---3----------|


|----------------------------------------------------|
|----1--------1--------0---------------0----------0--|
|---------2---------------2--------2----------2------|
|---0h2-----2------2----2------2-----2-----2----2----|
|-0-------------0-----------0------------0-----------|
|-------0-------------0----------0-----------0-------|

solo:
Tap to rate this tab
 
# A B C D E F G H I J K L M N O P Q R S T U V W X Y Z