Paul Kelly - Down On My Speedway tab

This is not my tab, but a tab I found on the following website, 
http://members.iinet.net.au/~jscott/pkelly/down_on_my_speedway.htm.
This Paul Kelly fan, "J Scott" has gone to the effort to tab this; not me.

Enjoy.

Down On My Speedway

                                               x4  
|A        |E        |F# E F#    E |F# E F#      :||:F#                       |
                                                     1.Come on Suzie lets get 

|               |F#        |E     F#         |                           |
 ready to go                         We'll be out of this town before the 

|               |F#        |E     F#     |                   |              |
 sun is low                                I got a race track running in my  

|F#        |E     F#     |                        |              |F#        |
 head                     The present past and the future dead

|E     F#      |A        |E        |F# E F#     E |F# E F#       |A        |
                Down   on my  speed-way                           Down   on

|E        |F# E F#     E |F# E F#     :||
 my  speed-way

^ This bit looks out of whack, but if you look close, it's in perfect sync.

E---------------|----------------|-------------|----------------|-----------------|
B---------------|----------------|-------------|----------------|-----7---5--5----|
G---------------|----------------|-------------|----------------|-6-------------6-|
D---------------|----------------|-------------|----------------|-----------------|
A---------------|----------------|-------------|----------------|-----------------|
E-0---2-2-0---2-|-2---0---2-2----|-0--2-2-0--0-|-2---0---2-2----|-(cont. sim)-----|

    
E-----7--6------|-----------------|-----7--6-------|-----------------|-----7--6---|
B---------------|-----7---5--5----|----------------|-----7---5--5----|------------|
G-6-------------|-6-------------6-|-6--------------|-6-------------6-|-6----------|
D---------------|-----------------|----------------|-----------------|------------|
A---------------|-----------------|----------------|-----------------|------------|
E---------------|-----------------|----------------|-----------------|------------|

|F#                  |                      |          |         |                 |
  3.Push your starter jump your connection                          This terraplane

|                        |           |           |                   |             |
 needs a fuel injection                            I got a race track running in my

|            |           |                         |                |F#  E  F#  E  |
 head                      The present past and the future dead

|F# E F#     |A        |E        |F# E F#   E |F# E F#     |A        |E        |
              Down   on my  speed-way                       Down   on my  speed-

|F# E F#   E |F# E F#     |A        |E        |F# E F#   E |F# E F#     |A        |
 way                       Down   on my  speed-way                       Down   on

|E        |F# E F#   E |F# E F#     ||:F#       |         |         |        :||
 my  speed-way                                                          Rpt ad lib

2.Keep your eye on number four
  They strap him in and then they weld the door
  Come on and tangle deep down in my wires
  There's something smoking must be fire
Tap to rate this tab
 
# A B C D E F G H I J K L M N O P Q R S T U V W X Y Z