Song name
# A B C D E F G H I J K L M N O P Q R S T U V W X Y Z

Paul Kelly - To Her Door tab

To Her Door - Paul Kelly (Guitar Solo at 1:43)

e|-----------------|-------------------|----------------------|
B|-----------------|-------------------|----------------------|
G|-----------------|-------------------|----------------------|
D|-----------------|-------------------|----------------------|
A|----------0-2----|-----------0-2-2---|---------------5------|
E|--3-0-3-0--------|-0-3-0-3-0---------|-0-3-0-3-0-5/7---7-5-3|


e|------------------|-----------------|-/10-10-10--\8--8--8---|
B|------------------|-----------8-8---|-/12-12-12--\10-10-10--|
G|------------------|-----------7-7---|-----------------------|
D|------------------|-----------9-9---|-----------------------|
A|----5-5-5-5-------|-----5-7-5-------|-----------------------|
E|-5/7-------7\5-3--|--5-7------------|-----------------------|


e|-\7-7-7-5-3-3--|----3------3-3-3-------|-5--5-5-5-3-3-3--|
B|-\8-8-8-7-5-3--|----3-5-3--5-5-5-5p3-3-|-3--3-3-3-3-5-3--|
G|---------------|-3b4--4-4--4-4-4-4--4--|-----------------|
D|---------------|-----------------------|-----------------|
A|---------------|-----------------------|-----------------|
E|---------------|-----------------------|-----------------|


E|-5-3--3-3---------|----------|
B|-----5------------|----------|
G|----------4-2-0-0-|----------|
D|------------------|----------|
A|------------------|----------|
E|------------------|-6r5-3----|
Tap to rate this tab
# A B C D E F G H I J K L M N O P Q R S T U V W X Y Z