Guitaretab - guitar tabs
Song name
# A B C D E F G H I J K L M N O P Q R S T U V W X Y Z

Paul Mccartney - One More Kiss tab

    -----------------------------------------------------------

    PAUL McCARTNEY - ONLY ONE MORE KISS. From RED ROSE SPEEDWAY
                     album. Released on April, 30th 1973.
   
    -----------------------------------------------------------

    Tabbed by:PJVillanueva





    Only one more kiss  
    I didnít mean to hurt you little girl
    Letís make it one to remember  
    Only one more kiss

    I said a foolish thing last night
    I didnít think youíd take it bad
    But now Iím on my way again and just before I go

    Only one more kiss  
    I never mean to hurt you little girl
    Letís make it one to remember  
    Only one more kiss

              Solo

    Only one more kiss  
    I didnít mean to hurt you little girl
    Letís make it one to remember  
    Only one more kiss

    Somebodyís built a home for us
    Someday weíll see it standing there
    But like the wind that has to blow  
    I must be on my way

    Only one more kiss  
    I never mean to hurt you little girl
    Letís make it one to remember  
    Only one more kiss
    Well only one more kiss Yeah 




                           
       e|3------ ------- -- ------- ------- ------- -------|
       B|--------------------------------------------------|
       G|--------------------------------------------------|
       D|--------------------------------------------------|
       A|--------------------------------------------------|
       E|3-------------------------------------------------|

       e|------- ------- -- 3------ ------- ------- -------|
       B|------------0H1-3--3-----------3-P-1----0---------|
       G|-------------------------------0--------0---------|
       D|--------------------------------------------------|
       A|--------------------------------------------------|
       E|--------------------------------------------------|
                            One     two     three   four

    12/8

    00:04
    G
  e|-----3- 3------ 3----3- 3------|3----3- 3------ 3----3- -----3-|
  B|-----0--0-------0----0--0------|0----0--0-------0----0--0------|
  G|-----0--0-------0----0--0------|0----0--0-------0----0--0------|
  D|-----0--0-------0----0--0------|0----0--0-------0----0--0------|
  A|-----2--2-------2----2--2------|2----2--2-------2----2--2------|
  E|-----3--3-------3----3--3------|3----3--3-------3----3--3------|

  e|------- ------- ------- -------|------- ------- ------- -------|
  B|-------------------------------|-------------------------------|
  G|-------------------------------|-------------------------------|
  D|-------------------------------|0------------------------------|
  A|----------------2-------3------|------------------------2------|
  E|3------------------------------|--------2-------3--------------|

  e|------- ------- ------- -------|------- ------- ------- -------|
  B|------------------------5------|-----0-------0-----------------|
  G|--------0----2--2/4------------|----B4-R2----0-----------------|
  D|-----0-------------------------|-------------------------------|
  A|-------------------------------|-------------------------------|
  E|-------------------------------|-------------------------------|





  e|3----3- 3------ ------- 3------|-----3- 3------ 3----3- 3------|
  B|0----0--0---------------0------|-----0--0-------0----0--0------|
  G|0----0--0---------------0------|-----0--0-------0----0--0------|
  D|0----0--0---------------0------|-----0--0-------0----0--0------|
  A|2----2--2---------------2------|-----2--2-------2----2--2------|
  E|3----3--3---------------3------|-----3--3-------3----3--3------|

  e|------- ------- ------- -------|------- ------- ------- -------|
  B|-------------------------------|-------------------------------|
  G|-------------------------------|-------------------------------|
  D|-------------------------------|0------------------------------|
  A|----------------2-------3------|------------------------2------|
  E|3------------------------------|--------2-------3--------------|

  e|------- ------- ------- -------|------- ------- ------- -------|
  B|------------------------8--\---|-----3--1-------0--------------|
  G|--------4----5--7--------------|-----0--0-------0--------------|
  D|-----5-------------------------|-------------------------------|
  A|-------------------------------|-------------------------------|
  E|-------------------------------|-------------------------------|




            C            Em                 E            Am
  e|------- 0------ -----0- 0----0-|0------ 0------ -----0- 0----0-|
  B|--------1------------0--0----0-|0-------0------------1--1----1-|
  G|--------0------------x--x----x-|x-------1------------2--2----2-|
  D|--------2------------2--2----2-|2-------2------------2--2----2-|
  A|--------3------------2--2----2-|2-------2------------0--0----0-|
  E|---------------------0--0----0-|0-------0----------------------|

  e|------- ------- ------- -------|------- ------- ------- -------|
  B|-------------------------------|-------------------------------|
  G|-------------------------------|-------------------------------|
  D|-------------------------------|-------------------------------|
  A|3------------------------------|2---------------0--------------|
  E|----------------0--------------|-------------------------------|

  e|------- ------- ------- -------|------- ------- ------- -------|
  B|-----5--5----5----------5----8B9-------------------------------|
  G|----------------7--------------|----7B9R7----5-~---------------|
  D|-------------------------------|-------------------------------|
  A|-------------------------------|-------------------------------|
  E|-------------------------------|-------------------------------|



                                   (.
                                    D
  e|-----0- 0------ ------- 0------|2------ ------- ------- -------|
  B|-----1--1---------------1------|3------------------------------|
  G|-----2--2---------------2------|2------------------------------|
  D|-----2--2---------------2------|0------------------------------|
  A|-----0--0---------------0------|-------------------------------|
  E|-------------------------------|-------------------------------|

  e|------- ------- ------- -------|------- ------- ------- -------|
  B|-------------------------------|-------------------------------|
  G|-------------------------------|-------------------------------|
  D|-------------------------------|0------------------------------|
  A|0---------------0--------------|-------------------------------|
  E|-------------------------------|-------------------------------|

  e|------- ------- ------- -------|------- ------- ------- -------|
  B|------1/3-------5--/----8------|7------------------------------|
  G|------2/4-------5--/----9------|7------------------------------|
  D|-------------------------------|-------------------------------|
  A|-------------------------------|-------------------------------|
  E|-------------------------------|-------------------------------|
                                            Only    one  more    kiss



    00:21
    Bm
  e|2----2- 2------ 2----2- 2------|2------ 2------ 2----2- 2------|
  B|3----3--3-------3----3--3------|3-------3-------3----3--3------|
  G|4----4--4-------4----4--4------|4-------4-------4----4--4------|
  D|4----4--4-------4----4--4------|4-------4-------4----4--4------|
  A|2----2--2-------2----2--2------|2-------2-------2----2--2------|
  E|-------------------------------|-------------------------------|

  e|------- ------- ------- -------|------- ------- ------- -------|
  B|-------------------------------|-------------------------------|
  G|-------------------------------|-------------------------------|
  D|-------------------------------|-------------------------------|
  A|2------------------------------|2------------------------------|
  E|----------------2--------------|----------------2--------------|

  e|2------ ------- 2------ -------|2------ ------- 2------ -------|
  B|--------3---------------3------|--------3---------------3------|
  G|-------------------------------|-------------------------------|
  D|-------------------------------|-------------------------------|
  A|-------------------------------|-------------------------------|
  E|-------------------------------|-------------------------------|
                                         I  didnít          to   hurt 
                                                 mean


            Em
  e|------- 0------ -----0- 0------|------- 0------ -----0- 0------|
  B|--------0------------0--0------|--------0------------0--0------|
  G|--------0------------0--0------|--------0------------0--0------|
  D|--------2------------2--2------|--------2------------2--2------|
  A|--------2------------2--2------|--------2------------2--2------|
  E|--------0------------0--0------|--------0------------0--0------|

  e|------- ------- ------- -------|------- ------- ------- -------|
  B|-------------------------------|-------------------------------|
  G|-------------------------------|-------------------------------|
  D|-------------------------------|2------------------------------|
  A|----------------2--------------|----------------2--------------|
  E|0------------------------------|-------------------------------|

  e|------- ------- ------- -------|------- ------- ------- -------|
  B|-------------------------------|-------------------------------|
  G|--------4---------------4------|--------4---------------4------|
  D|-------------------------------|-------------------------------|
  A|-------------------------------|-------------------------------|
  E|-------------------------------|-------------------------------|
         you     girl                    Letís   it one  to remember
            little                          make


    Bm                      Bbm     Am              D
  e|2------ 2------ 2------ 1------|0----0- 0------ 2----2- 2------|
  B|3-------3-------3-------2------|1----1--1-------3----3--3------|
  G|4-------4-------4-------3------|2----2--2-------2----2--2------|
  D|4-------4-------4-------3------|2----2--2-------0----0--0------|
  A|2-------2-------2-------1------|0----0--0----------------------|
  E|-------------------------------|-------------------------------|

  e|------- ------- ------- -------|------- ------- ------- -------|
  B|-------------------------------|-------------------------------|
  G|-------------------------------|-------------------------------|
  D|-------------------------------|----------------0--------------|
  A|2---------------2-------1------|0------------------------------|
  E|-------------------------------|-------------------------------|

  e|------- ------- ------- -------|------- ------- ------- -------|
  B|--------3----------------------|----------------3-------3------|
  G|4---------------4-------3------|2-------2-------5-------5------|
  D|----------------4-------3------|2-------2-------4-------4------|
  A|----------------2-------1------|0-------0-------5-------5------|
  E|-------------------------------|-------------------------------|
                                            Only    one  more    kiss



            G
  e|3----3- 3------ ------- 3------|3----3- 3------ -----3- 3----3-|
  B|0----0--0---------------0------|0----0--0------------0--0----0-|
  G|0----0--0---------------0------|0----0--0------------0--0----0-|
  D|0----0--0---------------0------|0----0--0------------0--0----0-|
  A|2----2--2---------------2------|2----2--2------------2--2----2-|
  E|3----3--3---------------3------|3----3--3------------3--3----3-|

  e|------- ------- ------- -------|------- ------- ------- -------|
  B|-------------------------------|-------------------------------|
  G|-------------------------------|-------------------------------|
  D|-------------------------------|0------------------------------|
  A|----------------2-------3------|-------------------------------|
  E|3------------------------------|--------2-------3--------------|

  e|------- ------- ------- 3------|------- ------- ------- -------|
  B|-------------------------------|3------------------------------|
  G|4--------------------4---------|---------2B3R2--0--------------|
  D|5------------------5-----------|-------------------------------|
  A|5------------4-/-5-------------|-------------------------------|
  E|3------------------------------|-------------------------------|



    00:38
         G
  e|-----3- 3------ ------- -------|------- ------- -----3- 3----3-|
  B|-----0--0----------------------|---------------------0--0----0-|
  G|-----0--0----------------------|---------------------0--0----0-|
  D|-----0--0----------------------|---------------------0--0----0-|
  A|-----2--2----------------------|---------------------2--2----2-|
  E|-----3--3----------------------|---------------------3--3----3-|

  e|------- ------- ------- -------|------- ------- ------- -------|
  B|-------------------------------|-------------------------------|
  G|-------------------------------|-------------------------------|
  D|-------------------------------|0------------------------------|
  A|----------------2-------3------|-------------------------------|
  E|3------------------------------|--------2-------3--------------|
         I  said foolish         thing   last    night
               a



  e|-----3- 3------ ------- -------|------- ------- -----3- 3------|
  B|-----0--0----------------------|3--------------------0--0------|
  G|-----0--0----------------------|5--------------------0--0------|
  D|-----0--0----------------------|4--------------------0--0------|
  A|-----2--2----------------------|5--------------------2--2------|
  E|-----3--3----------------------|---------------------3--3------|

  e|------- ------- ------- -------|------- ------- ------- -------|
  B|-------------------------------|-------------------------------|
  G|-------------------------------|-------------------------------|
  D|-------------------------------|0------------------------------|
  A|----------------2-------3------|------------------------2------|
  E|3------------------------------|--------2-------3--------------|
         I  didnít       youíd   take    it      bad
                 think


    C                       Em                           Am
  e|3----3- 3------ ------- 0------|0------ 0------ -----0- 0----0-|
  B|1----1--1---------------0------|0-------0------------1--1----1-|
  G|0----0--0---------------0------|0-------0------------2--2----2-|
  D|2----2--2---------------2------|2-------2------------2--2----2-|
  A|3----3--3---------------2------|2-------2------------0--0----0-|
  E|------------------------0------|0-------0----------------------|   

  e|------- ------- ------- -------|------- ------- ------- -------|
  B|-------------------------------|-------------------------------|
  G|-------------------------------|-------------------------------|
  D|-------------------------------|-------------------------------|
  A|3------------------------------|2---------------0--------------|
  E|----------------0--------------|-------------------------------|
         But     Iím        my   way        again 
            now     on

                                   (.
                                    D
  e|-----0- 0------ 0----0- 0------|2------ ------- ------- -------|
  B|-----1--1-------1----1--1------|3------------------------------|
  G|-----2--2-------2----2--2------|2------------------------------|
  D|-----2--2-------2----2--2------|0------------------------------|
  A|-----0--0-------0----0--0------|-------------------------------|
  E|-------------------------------|-------------------------------|

  e|------- ------- ------- -------|------- ------- ------- -------|
  B|-------------------------------|-------------------------------|
  G|-------------------------------|-------------------------------|
  D|-------------------------------|0------------------------------|
  A|0---------------0--------------|-------------------------------|
  E|-------------------------------|-------------------------------|

  e|------- ------- ------- -------|141210- --P---- ------- -------|
  B|-------------------------------|----P---1210-------------------|
  G|-------------------------------|-----------1211----------------|
  D|-------------------------------|-------------P-----------------|
  A|-------------------------------|-------------------------------|
  E|-------------------------------|-------------------------------|
         and      before I       go         Only    one  more    kiss
            just


    00:55                                                      

  e|2------ 2------ 2------ 2----2-|2------ 2------ 2------ 2------|
  B|3-------3-------3-------3----3-|3-------3-------3-------3------|
  G|4-------4-------4-------4----4-|4-------4-------4-------4------|
  D|4-------4-------4-------4----4-|4-------4-------4-------4------|
  A|2-------2-------2-------2----2-|2-------2-------2-------2------|
  E|-------------------------------|-------------------------------|

  e|------- ------- ------- -------|------- ------- ------- -------|
  B|-------------------------------|-------------------------------|
  G|-------------------------------|-------------------------------|
  D|-------------------------------|-------------------------------|
  A|2------------------------------|2------------------------------|
  E|----------------2--------------|----------------2--------------|

  e|2------ ------- ------- -------|2------ ------- 2------ -------|
  B|--------3---------------3------|--------3---------------3------|
  G|-------------------------------|-------------------------------|
  D|-------------------------------|-------------------------------|
  A|-------------------------------|-------------------------------|
  E|-------------------------------|-------------------------------|

  e|2------ ------- ------- -------|------- ------- ------- -------|
  B|-------------3-----------------|-------------------------------|
  G|----------------4--------------|-------------------------------|
  D|-------------------------------|-------------------------------|
  A|-------------------------------|-------------------------------|
  E|-------------------------------|-------------------------------|
                                         I  never           to   hurt 
                                                 mean



  e|0------ 0------ 0----0- 0------|0----0- 0------ 0----0- 0------|
  B|0-------0-------0----0--0------|0----0--0-------0----0--0------|
  G|0-------0-------0----0--0------|0----0--0-------0----0--0------|
  D|2-------2-------2----2--2------|2----2--2-------2----2--2------|
  A|2-------2-------2----2--2------|2----2--2-------2----2--2------|
  E|0-------0-------0----0--0------|0----0--0-------0----0--0------|

  e|------- ------- ------- -------|------- ------- ------- -------|
  B|-------------------------------|-------------------------------|
  G|-------------------------------|-------------------------------|  
  D|-------------------------------|2------------------------------|
  A|----------------2--------------|----------------2--------------|
  E|0------------------------------|-------------------------------|

  e|0------ ------- ------- -------|0----0- ------- 0------ -------|
  B|--------0---------------0------|--------0---------------0------|
  G|-------------------------------|-------------------------------|
  D|-------------------------------|-------------------------------|
  A|-------------------------------|-------------------------------|
  E|-------------------------------|-------------------------------|

  e|3------ ------- ------- -------|------- ------- ------- -------|
  B|-------------5-----------------|-------------------------------|
  G|----------------4--------------|-------------------------------|
  D|-------------------------------|-------------------------------|
  A|-------------------------------|-------------------------------|
  E|-------------------------------|-------------------------------|
         you     girl                    Letís   it one  to remember
            little                          make



  e|2------ 2------ 2------ 1------|0----0- 0------ 2----2- 2----3-|
  B|3-------3-------3-------2------|1----1--1-------3----3--3----0-|
  G|4-------4-------4-------3------|2----2--2-------2----2--2----0-|
  D|4-------4-------4-------3------|2----2--2-------0----0--0----0-|
  A|2-------2-------2-------1------|0----0--0--------------------2-|
  E|-------------------------------|-----------------------------3-|

  e|------- ------- ------- -------|------- ------- ------- -------|
  B|-------------------------------|-------------------------------|
  G|-------------------------------|-------------------------------|
  D|-------------------------------|----------------0--------------| 
  A|2---------------2-------1------|0------------------------------|
  E|-------------------------------|-------------------------------|

  e|2------ ------- ------- -------|------- ------- ------- -------|
  B|-------------3-----------------|-------------------------------|
  G|----------------4-------3------|2------------------------------|
  D|----------------4-------3------|2---------------0--------------|
  A|----------------2-------1------|0------------------------------|
  E|-------------------------------|-------------------------------|
                                            Only    one  more    kiss




  e|3------ 3------ ------- 3------|3----3- 3------ 3----3- 3----3-|
  B|0-------0---------------0------|0----0--0-------0----0--0----0-|
  G|0-------0---------------0------|0----0--0-------0----0--0----0-|
  D|0-------0---------------0------|0----0--0-------0----0--0----0-|
  A|2-------2---------------2------|2----2--2-------2----2--2----2-|
  E|3-------3---------------3------|3----3--3-------3----3--3----3-|
[ Tab from: http://www.guitaretab.com/p/paul-mccartney/117300.html ]
  e|------- ------- ------- -------|------- ------- ------- -------|
  B|-------------------------------|-------------------------------|
  G|-------------------------------|-------------------------------|
  D|-------------------------------|0------------------------------| 
  A|----------------2-------3------|------------------------2------|
  E|3------------------------------|--------2-------3--------------|

  e|------- ------- ------- 3------|------- ------- ------- -------|
  B|-------------------------------|3------------------------------|
  G|4--------------------4---------|---------2B3R2--0--------------|
  D|5------------------5-----------|-------------------------------|
  A|5------------4-/-5-------------|-------------------------------|
  E|3------------------------------|-------------------------------|




    SOLO
    01:13

  e|-----3- 3------ 3------ 3------|------- 3------ 3----3- 3----3-|
  B|-----0--0-------0-------0------|--------0-------0----0--0----0-|
  G|-----0--0-------0-------0------|--------0-------0----0--0----0-|
  D|-----0--0-------0-------0------|--------0-------0----0--0----0-|
  A|-----2--2-------2-------2------|--------2-------2----2--2----2-|
  E|-----3--3-------3-------3------|--------3-------3----3--3----3-|

  e|------- ------- ------- -------|------- ------- ------- -------|
  B|-------------------------------|-------------------------------|
  G|-------------------------------|-------------------------------|
  D|-------------------------------|0------------------------------|
  A|----------------2-------3------|-------------------------------|
  E|3------------------------------|--------2-------3--------------|

  e|------- ------- ------- -------|------- ------- ------- -------|
  B|------------------------5-~----|----0--------0-~---------------|
  G|--------0----2--4-------4-~----|----2B4R2----0-~---------------|
  D|-----0-------------------------|-------------------------------|
  A|-------------------------------|-------------------------------|
  E|-------------------------------|-------------------------------|

  e|------- ------- ------- -------|------- ------- ------- -------|
  B|------------------------3-~----|-------------------------------|
  G|--------0----2--2/4------------|----2B4-2----0-~---------------|
  D|-----0-------------------------|-------------------------------|
  A|-------------------------------|-------------------------------|
  E|-------------------------------|-------------------------------|





  e|3------ 3------ 3------ 3------|-----3- 3------ 3----3- 3------|
  B|0-------0-------0-------0------|-----0--0-------0----0--0------|
  G|0-------0-------0-------0------|-----0--0-------0----0--0------|
  D|0-------0-------0-------0------|-----0--0-------0----0--0------|
  A|2-------2-------2-------2------|-----2--2-------2----2--2------|
  E|3-------3-------3-------3------|-----3--3-------3----3--3------|

  e|------- ------- ------- -------|------- ------- ------- -------|
  B|-------------------------------|-------------------------------|
  G|-------------------------------|-------------------------------|
  D|--------0----------------------|0------------------------------|
  A|----------------2-------3------|------------------------2------|
  E|3------------------------------|--------2-------3--------------|

  e|------- ------- ------- -------|------- ------- ------- -------|
  B|------------------------8--\---|-----3--1----0-----------------|
  G|--------4----5--7--------------|-------------------------------|
  D|-----5-------------------------|-------------------------------|
  A|-------------------------------|-------------------------------|
  E|-------------------------------|-------------------------------|

  e|------- ------- ------- -------|------- ------- ------- -------|
  B|------------------------8--\---|-----0----------0--------------|
  G|--------4----5--7--------------|-----3--1-------0--------------|
  D|-----5-------------------------|-------------------------------|
  A|-------------------------------|-------------------------------|
  E|-------------------------------|-------------------------------|





  e|-----0- 0------ -----0- 0----0-|-----0- 0------ -----0- 0----0-|
  B|-----1--1------------0--0----0-|-----0--0------------1--1----1-|
  G|-----0--0------------0--0----0-|-----0--0------------2--2----2-|
  D|-----2--2------------2--2----2-|-----2--2------------2--2----2-|
  A|-----3--3------------2--2----2-|-----2--2------------0--0----0-|
  E|---------------------0--0----0-|-----0--0----------------------|

  e|------- ------- ------- -------|------- ------- ------- -------|
  B|-------------------------------|-------------------------------|
  G|-------------------------------|-------------------------------|
  D|-------------------------------|2------------------------------|   
  A|3------------------------------|--------2-------0--------------|
  E|----------------0--------------|-------------------------------|

  e|------- ------- ------- -------|------- ------- ------- -------|
  B|-----5-------5----------5----8B9-------------------------------|
  G|----------------7--------------|----7B9R7----5-~---------------|
  D|-------------------------------|-------------------------------|
  A|-------------------------------|-------------------------------|
  E|-------------------------------|-------------------------------|


                                   (.

  e|------- 0------ -----0- 0------|2------ ------- ------- -------|
  B|--------1------------1--1------|3------------------------------|
  G|--------2------------2--2------|2------------------------------|
  D|--------2------------2--2------|0------------------------------|
  A|--------0------------0--0------|-------------------------------|
  E|-------------------------------|-------------------------------|

  e|------- ------- ------- -------|------- ------- ------- -------|
  B|-------------------------------|-------------------------------|
  G|-------------------------------|-------------------------------|
  D|-------------------------------|0------------------------------|
  A|0---------------0--------------|-------------------------------|
  E|-------------------------------|-------------------------------|

  e|------- ------- ------- -------|------- ------- ------- -------|
  B|------1/3-------5---/---8------|7------------------------------|
  G|------2/4-------5---/---9------|7------------------------------|
  D|-------------------------------|-------------------------------|
  A|-------------------------------|-------------------------------|
  E|-------------------------------|-------------------------------|
                                          Only    one  more    kiss  



    01:30                                                          

  e|2------ 2----2- 2----2- 2------|2------ 2----2- 2------ 2------|
  B|3-------3----3--3----3--3------|3-------3----3--3-------3------|
  G|4-------4----4--4----4--4------|4-------4----4--4-------4------|
  D|4-------4----4--4----4--4------|4-------4----4--4-------4------|
  A|2-------2----2--2----2--2------|2-------2----2--2-------2------|
  E|-------------------------------|-------------------------------|

  e|------- ------- ------- -------|------- ------- ------- -------|
  B|-------------------------------|-------------------------------|
  G|-------------------------------|-------------------------------|
  D|-------------------------------|-------------------------------|
  A|2------------------------------|2------------------------------|
  E|----------------2--------------|----------------2--------------|

  e|2------ ------- ------- -------|------- ------- ------- -------|
  B|-------------3-----------------|-------------------------------|
  G|----------------4--------------|-------------------------------|
  D|-------------------------------|-------------------------------|
  A|-------------------------------|-------------------------------|
  E|-------------------------------|-------------------------------|

  e|------- ------- ------- -------|------- ------- ------- -------|
  B|-------------------------------B19---R--17---------------------|
  G|-------------------------------|----------------16-~-----------|
  D|-------------------------------|-------------------------------|
  A|-------------------------------|-------------------------------|
  E|-------------------------------|-------------------------------|
                                         I  didnít          to   hurt 
                                                 mean



  e|0----0- 0------ 0----0- 0------|0------ 0------ 0----0- 0------| 
  B|0----0--0-------0----0--0------|0-------0-------0----0--0------|
  G|0----0--0-------0----0--0------|0-------0-------0----0--0------|
  D|2----2--2-------2----2--2------|2-------2-------2----2--2------|
  A|2----2--2-------2----2--2------|2-------2-------2----2--2------|
  E|0----0--0-------0----0--0------|0-------0-------0----0--0------|

  e|------- ------- ------- -------|------- ------- ------- -------|
  B|-------------------------------|-------------------------------|
  G|-------------------------------|-------------------------------|
  D|-------------------------------|2------------------------------|
  A|----------------2--------------|----------------2--------------|
  E|0------------------------------|-------------------------------|

  e|3------ ------- ------- -------|------- ------- ------- -------|
  B|-------------5-----------------|-------------------------------|
  G|----------------4--------------|-------------------------------|
  D|-------------------------------|-------------------------------|
  A|-------------------------------|-------------------------------|
  E|-------------------------------|-------------------------------|

  e|------- ------- ------- -------|------- ------- ------- -------|
  B|-------------------------------B19---R--17---------------------|
  G|-------------------------------|-------------16-16-~-----------|
  D|-------------------------------|-------------------------------|
  A|-------------------------------|-------------------------------|
  E|-------------------------------|-------------------------------|
         you     girl                    Letís   it one  to remember
            little                          make



  e|2------ 2------ 2------ 1------|0------ 0------ 2----2- 2----3-|
  B|3-------3-------3-------2------|1-------1-------3----3--3----0-|
  G|4-------4-------4-------3------|2-------2-------2----2--2----0-|
  D|4-------4-------4-------3------|2-------2-------0----0--0----0-|
  A|2-------2-------2-------1------|0-------0--------------------2-|
  E|-------------------------------|-----------------------------3-|  

  e|------- ------- ------- -------|------- ------- ------- -------|
  B|-------------------------------|-------------------------------|
  G|-------------------------------|-------------------------------|
  D|-------------------------------|----------------0--------------|
  A|2---------------2-------1------|0------------------------------|
  E|-------------------------------|-------------------------------|
                                                    D6
  e|2------ ------- ------- -------|------- ------- 2------ -------|
  B|-------------3-----------------|1---------------0--------------|
  G|----------------4-------3------|2---------------2--------------|
  D|----------------4-------3------|2---------------0--------------|
  A|----------------2-------1------|0------------------------------|
  E|-------------------------------|-------------------------------| 
                                            Only    one  more    kiss




  e|3------ 3------ 3------ 3------|3----3- 3------ 3----3- 3----3-|
  B|0-------0-------0-------0------|0----0--0-------0----0--0----0-|
  G|0-------0-------0-------0------|0----0--0-------0----0--0----0-|
  D|0-------0-------0-------0------|0----0--0-------0----0--0----0-|
  A|2-------2-------2-------2------|2----2--2-------2----2--2----2-|
  E|3-------3-------3-------3------|3----3--3-------3----3--3----3-|

  e|------- ------- ------- -------|------- ------- ------- -------|
  B|-------------------------------|-------------------------------|
  G|-------------------------------|-------------------------------|
  D|-------------------------------|0------------------------------|
  A|----------------2-------3------|------------------------2------|
  E|3------------------------------|--------5B6--R--3--------------| 

  e|------- ------- ------- 3------|------- ------- ------- -------|
  B|3------------------------------|3------------------------------|
  G|4--------------------4---------|-------B3---R---0--------------|
  D|5------------------5-----------|-------------------------------|
  A|5------------4-/-5-------------|------------------------2--1--0|
  E|3------------------------------|-------------------------------|  




    01:48

  e|------- 3------ ------- -------|------- ------- ------- -------|
  B|--------3----------------------|-------------------------------|
  G|--------4----------------------|-------------------------------|
  D|--------5----------------------|-------------------------------|
  A|-------------------------------|-------------------------------|
  E|3------------------------------|-------------------------------|
          Somebodyís        a    home       for  us
                 built 


    Someday weíll see it standing there
    But like the wind that has to blow  
    I must be on my way                     Only    one  more    kiss

                       
    02:05                                                                    

  e|------- 2----2- 2----2- 2------|2------ 2----2- 2----2- 2------|
  B|--------3----3--3----3--3------|3-------3----3--3----3--3------|
  G|--------4----4--4----4--4------|4-------4----4--4----4--4------|
  D|--------4----4--4----4--4------|4-------4----4--4----4--4------|
  A|--------2----2--2----2--2------|2-------2----2--2----2--2------|
  E|-------------------------------|-------------------------------|

  e|------- 2------ ------- 2------|------- 2------ ------- 2------|
  B|--------3---------------3------|--------3---------------3------|
  G|--------4---------------4------|--------4---------------4------|
  D|--------4---------------4------|--------4---------------4------|
  A|--------2---------------2------|--------2---------------2------|
  E|-------------------------------|-------------------------------|

  e|------- ------- ------- -------|------- ------- ------- -------|
  B|-------------------------------|-------------------------------|
  G|-------------------------------|-------------------------------|
  D|-------------------------------|-------------------------------|
  A|2------------------------------|2------------------------------|
  E|----------------2--------------|----------------2--------------|

  e|------- ------- ------- -------|------- 7------ ------- -------|
  B|7------------------------------|------7------------------------|
  G|-------------7-----------------|---7---------------------------|
  D|----------------9------------8/|9------------------------------|
  A|-------------------------------|-------------------------------|
  E|-------------------------------|-------------------------------|
                                         I  never           to   hurt 
                                                 mean



  e|0------ 0------ 0----0- 0------|0----0- 0------ 0------ 0------| 
  B|0-------0-------0----0--0------|0----0--0-------0-------0------|
  G|0-------0-------0----0--0------|0----0--0-------0-------0------|
  D|2-------2-------2----2--2------|2----2--2-------2-------2------|
  A|2-------2-------2----2--2------|2----2--2-------2-------2------|
  E|0-------0-------0----0--0------|0----0--0-------0-------0------|

  e|------- ------- ------- -------|------- ------- ------- -------|
  B|-------------------------------|-------------------------------|
  G|-------------------------------|-------------------------------|  
  D|-------------------------------|2------------------------------|
  A|----------------2--------------|----------------2--------------|
  E|0------------------------------|-------------------------------|

  e|------- ------- ------- -------|------- 7------ ------- -------|
  B|8------------------------------|------8------------------------|
  G|-------------9-----------------|---9---------------------------|
  D|----------------9------------8/|9------------------------------|
  A|-------------------------------|-------------------------------|
  E|-------------------------------|-------------------------------|
                                            +
  e|------- ------- ------- -------|------- 12----- ------- -------|
  B|8------------------------------|-----12------------------------|
  G|-------------9-----------------|---12--------------------------|
  D|----------------9------------13/14-----------------------------|
  A|-------------------------------|-------------------------------|
  E|-------------------------------|-------------------------------|
         you     girl                    Letís   it one  to remember
            little                          make



  e|2------ 2----2- 2------ 1------|0----0- 0------ 2----2- 2------|
  B|3-------3----3--3-------2------|1----1--1-------3----3--3------|
  G|4-------4----4--4-------3------|2----2--2-------2----2--2------|
  D|4-------4----4--4-------3------|2----2--2-------0----0--0------|
  A|2-------2----2--2-------1------|0----0--0----------------------|
  E|-------------------------------|-------------------------------|

  e|------- ------- ------- -------|------- ------- ------- -------|
  B|-------------------------------|-------------------------------|
  G|-------------------------------|-------------------------------|
  D|-------------------------------|----------------0--------------| 
  A|2---------------2-------1------|0------------------------------|
  E|-------------------------------|-------------------------------|

  e|2------ ------- ------- -------|------- ------- 10----- ----\--|
  B|-------------3-----------------|1---------------10----------\--|
  G|----------------4-------3------|2---------------11----------\--|
  D|----------------4-------3------|2---------------12----------\--|
  A|----------------2-------1------|0---------------12----------\--|
  E|-------------------------------|----------------10----------\--| 
                                          Only    one  more    kiss


                                  
  e|3------ 3----3- 2------ 1------|0------ 0------ 2----2- 2------|
  B|0-------0----0--3-------2------|1-------1-------3----3--3------|
  G|0-------0----0--4-------3------|2-------2-------2----2--2------|
  D|0-------0----0--4-------3------|2-------2-------0----0--0----0/|
  A|2-------2----2--2-------1------|0-------0----------------------|
  E|3-------3----3-----------------|-------------------------------|

  e|------- ------- ------- -------|------- ------- ------- -------|
  B|-------------------------------|-------------------------------|
  G|-------------------------------|-------------------------------|
  D|-------------------------------|----------------0--------------|
  A|----------------2-------1------|0------------------------------|
  E|3------------------------------|-------------------------------|

  e|------- 3------ ------- 5/7----\5------ ------- ------- -------|
  B|--------3----------------------|-------------------------------|
  G|--------4----------------------|-------------------------------|
  D|5-------5----------------------|-------------------------------|
  A|5------------------------------|-------------------------------|
  E|3------------------------------|-------------------------------|

  e|------- ------- ------- -------|------- ------- ------- -------|
  B|------------------------5/8----\5------------------------------|
  G|-------------------------------|-------------------------------|
  D|-------------------------------|-------------------------------|
  A|-------------------------------|-------------------------------|
  E|-------------------------------|-------------------------------|
                                         Well       one  more    kiss
                                            only

                                                (.

  e|-----3- ------- ------- -------|------- ------- ------- -------|
  B|--------0----------------------|-----0-------------------------|
  G|--------0----------------------|-------------0-----------------|
  D|5------------------------------|-------------------------------|
  A|-------------------------------|-------------------------------|
  E|-------------------------------|-------------------------------|

  e|------- ------- ------- -------|------- ------- ------- -------|
  B|-------------------------------|-------------------------------|
  G|-------------------------------|-------------------------------|
  D|-------------------------------|-------------------------------|
  A|----------------2-------3------|5-------2----0-----------------|
  E|3------------------------------|-------------3-----------------|

  e|------- ------- ------- -------|------- ------0 ------- -------|
  B|------------------------14-----|13------14---15-~--------------|
  G|------------------------15-----|14------15---16-~--------------|
  D|-------------------------------|-------------------------------|
  A|-------------------------------|-------------------------------|
  E|-------------------------------|-------------------------------|

  e|------- ------- ------- -------|------- ------- ------- -------|
  B|-------------------------------|-------------------------------|
  G|------------------------16---\-|14------15-/-16-~--------------|
  D|-------------------------------|-------------------------------|
  A|-------------------------------|-------------------------------|
  E|-------------------------------|-------------------------------|
                                    Yeah







        B  Bend
        R  Release
        /  Slide up
        \  Slide down
        H  Hammer on
        P  Pull off
        ~  Vibrato
        +  Harmonic
        x  Mute note
        .  Play note like a dot in standard notation
        ^  Ties two notes together
        (. Pause



Related for One More Kiss tab