Song name
# A B C D E F G H I J K L M N O P Q R S T U V W X Y Z

Paul Mccartney - When The Night tab

Help us improve GuitareTab! Take a short survey!
    -------------------------------------------------------

    PAUL McCARTNEY - WHEN THE NIGHT. From RED ROSE SPEEDWAY 
                     album. Released on April, 30th, 1973.

    -------------------------------------------------------

    Tabbed by:PJVillanueva






    Well the night was beautiful and mellow (mellow, mellow) 
    And the light of the night fell on me, fell on me
 
    You said right, made me a happy fellow (fellow, fellow) 
    And the light of the night fell on me 

    I never will forget the night 
    I held you close, I held you tight 
    Oh darling, don't you know 

    The way you made my senses reel 
    I fell in love and now I feel 
    Like I will never go 
    Oh little darling don't you know 

    That the night was marvelous and yellow (yellow, yellow) 
    And the light of the night fell on me 

    And the light of the night fell on me 

    I never will forget the way 
    You taught me how to swing and sway 
    Oh darling don't you know 

    That ever since that special day 
    My mind can only contemplate 
    The magic that you show 
    Oh little darling don't you know 

    That the night is beautiful and yellow (yellow, yellow) 
    And the light of the night fell on me 
    Yeah the lala lala lala la la light fell on me
    Yeah that fell on me
    Oh, the la lala lala lala lala la la light fellon me
    Oooh  Yes the light fell on me




  G|------- ------- ------- -------|------- ------- ------- -------|
  D|5------------------------------|3------------------------------|
  A|-------------------------------|-------------------------------|
  E|-------------------------------|-------------------------------|
    Am          G                   Am          G                       
  e|5------ ----3-- ------- -------|5------ ----3-- ------- -------|
  B|5-----------3------------------|5-----------3------------------|
  G|5-----------4------------------|5-----------4------------------|
  D|-------------------------------|-------------------------------|
  A|-------------------------------|-------------------------------|
  E|-------------------------------|-------------------------------|

                                                            X
                                                          X X   X

  G|------- ------- ------- -------|------- ------- ------- -------|
  D|2-----------0------------------|-------------------------------|
  A|------------------------3------|2------------------------------|
  E|-------------------------------|-------------------------------|
    Am          G           Am      E
  e|5------ ----3-- ------- 5------|0------ ------- ------- -------|
  B|5-----------3-----------5------|0------------------------------|
  G|5-----------4-----------5------|1------------------------------|
  D|-------------------------------|-------------------------------|
  A|-------------------------------|----------------7---7---7---7--|
  E|-------------------------------|-------------------------------|



    00:11

  G|------- ------- ------- -------|------- ------- ------- -------|
  D|-------------------------------|-------------------------------|
  A|0------------------------------|7------------------------------|
  E|-------------------------------|-------------------------------|
    Am                              E
  e|------- ------- ------- -------|------- ------- ------- -------|
  B|5---5---5---5---5---5---5---5--|5---5---5---5---5---5---5---5--|
  G|5---5---5---5---5---5---5---5--|4---4---4---4---4---4---4---4--|
  D|7---7---7---7---7---7---7---7--|6---6---6---6---6---6---6---6--|
  A|-------------------------------|-------------------------------|
  E|-------------------------------|-------------------------------|
                                                                       
  e|------- ------- ------- -------|------- ------- ------- -------|
  B|---/13--13--13--12--10---------|-------------------------------|
  G|------------------------12--9--|7-/-9---9----------------------|
  D|-------------------------------|-------------------------------|
  A|-------------------------------|-------------------------------|
  E|-------------------------------|-------------------------------|

  e|---/12- 12--12- 10----- -------|------- ------- ------- -------|
  B|--------------------13--12--10-|8-------9----------------------|
  G|-------------------------------|-------------------------------|
  D|-------------------------------|-------------------------------|
  A|-------------------------------|-------------------------------|
  E|-------------------------------|-------------------------------|





  G|------- ------- ------- -------|------- ------- ------- -------|
  D|-------------------------------|-------------------------------|
  A|0------------------------------|7------------------------------|
  E|-------------------------------|-------------------------------|
    Am                              E
  e|------- ------- ------- -------|------- ------- ------- -------|
  B|5---5---5---5---5---5---5---5--|5---5---5---5---5---5---5---5--|
  G|5---5---5---5---5---5---5---5--|4---4---4---4---4---4---4---4--|
  D|7---7---7---7---7---7---7---7--|6---6---6---6---6---6---6---6--|
  A|-------------------------------|-------------------------------|
  E|-------------------------------|-------------------------------|

  e|------- ------- ------- -------|------- ------- ------- -------|
  B|---/13--13--13--12--10---------|-------------------------------|
  G|------------------------12--9--|7-/-9---9----------------------|
  D|-------------------------------|-------------------------------|
  A|-------------------------------|-------------------------------|
  E|-------------------------------|-------------------------------|

  e|---/12- 12--12- 10----- -------|------- ------- ------- -------|
  B|--------------------13--12--10-|8---9---9----------------------|
  G|-------------------------------|-------------------------------|
  D|-------------------------------|-------------------------------|
  A|-------------------------------|-------------------------------|
  E|-------------------------------|-------------------------------|
                                                            Well  night
                                                                the

    00:22

  G|------- ------- ------- -------|------- ------- ------- -------|
  D|7-----------7-----------7-----8/9------------------------------|
  A|-------------------------------|------------7------------------|
  E|-------------------------------|-------------------------------|
    Am                              E
  e|------- ------- ------- -------|------- ------- ------- -------|
  B|5---5---5---5---5---5---5---5--|5---5---5---5---5---5---5---5--|
  G|5---5---5---5---5---5---5---5--|4---4---4---4---4---4---4---4--|
  D|7---7---7---7---7---7---7---7--|6---6---6---6---6---6---6---6--|
  A|-------------------------------|-------------------------------|
  E|-------------------------------|-------------------------------|
                                                was beautiful and mellow
        Well    night . . . . . . . .
            the


  G|------- ------- ------- -------|------- ------- ------- -------|
  D|3-----------3------------------|3-----------3-----------5------|
  A|-------------------------------|-------------------------------|
  E|-------------------------------|-------------------------------|
    Fmaj7       F6                  Fm maj7     Fm6
  e|0---0-- 0------ ------- -------|0---0-- 0------ ------- -------|
  B|1---1---1---3---3---3---3---3--|1---1---1---3---3---3---3---3--|
  G|2---2---2---2---2---2---2---2--|1---1---1---1---1---1---1---1--|
  D|3---3---3---3---3---3---3---3--|3---3---3---3---3---3---3---3--|
  A|-------------------------------|-------------------------------|
  E|-------------------------------|-------------------------------|

  e/12----- ----10- ------- -------/12----- ----10- ---/12- 10-----|
  B|-------------------------------|----------------------------9--|
  G|-------------------------------|-------------------------------|
  D|-------------------------------|-------------------------------|
  A|-------------------------------|-------------------------------|
  E|-------------------------------|-------------------------------|

  e|------- ------- ------- -------|------- ------- ------- -------|
  B|-------------------------------|-------------------------------|
  G|--------------------7/9-7-5----|--------------------7/9-7-5----|
  D|----------------------------7--|6---------------------------6--|
  A|-------------------------------|-------------------------------|
  E|-------------------------------|-------------------------------|
                                                        And the light 
    Mellow . . . . . . .            mellow . . . . . . . 



  G|------- ------- ------- -------|------- ------- ------- -------|
  D|-------------------------------|5------------------------------|
  A|3-----------3------------------|-------------------------------|
  E|-------------------------------|------------3------------------|
    C                               G
  e|3---3-- 3---3-- 3---3-- 3---3--|3---3-- 3---3-- 3---3-- 3---3--|
  B|5---5---5---5---5---5---5---5--|3---3---3---3---3---3---3---3--|
  G|5---5---5---5---5---5---5---5--|4---4---4---4---4---4---4---4--|
  D|5---5---5---5---5---5---5---5--|5---5---5---5---5---5---5---5--|
  A|-------------------------------|-------------------------------|
  E|-------------------------------|-------------------------------|

  e|------- ------- ------- -------|------- ------- ------- -------|
  B|8-----------------------8---7--|6------------------------------|
  G|-------------------------------|--------------------7---8---9--|
  D|-------------------------------|-------------------------------|
  A|-------------------------------|-------------------------------|
  E|-------------------------------|-------------------------------|

  e|------- ------- ------- -------|------- ------- ------- -------|
  B|-------------------------------|-------------------------------|
  G|-------------------------------|-------------------------------|
  D|5-------------------5---4---3--|-------------------------------|
  A|-------------------------------|-------------------------------|
  E|-------------------------------|-------------------------------|
                        of  the                         fell    me
                              night                       on



  G|------- ------- ------- -------|------- ------- ------- -------|
  D|-------------------------------|5------------------------------|
  A|3-----------3------------------|-------------------------------|
  E|-------------------------------|------------3------------------|
    C                               G7
  e|------- ------- ------- -------|3---3-- 3---3-- 3---3-- 3---3--|
  B|5---5---5---5---5---5---5---5--|6---6---6---6---6---6---6---6--|
  G|5---5---5---5---5---5---5---5--|4---4---4---4---4---4---4---4--|
  D|5---5---5---5---5---5---5---5--|5---5---5---5---5---5---5---5--|
  A|-------------------------------|-------------------------------|
  E|-------------------------------|-------------------------------|

  e|8------ ------- ------- -------|3------ ------- ------- -------|
  B|-------------------------------|6------------------------------|
  G|-------------------------------|4------------------------------|
  D|-------------------------------|x------------------------------|
  A|-------------------------------|5------------------------------|
  E|-------------------------------|7------------------------------|
                                                        You said 
                                                                right

    00:43

  G|------- ------- ------- -------|------- ------- ------- -------|
  D|7-----------7-----------7-----8/9------------------------------|
  A|-------------------------------|------------7------------------|
  E|-------------------------------|-------------------------------|

  e|------- ------- ------- -------|------- ------- ------- -------|
  B|5---5---5---5---5---5---5---5--|5---5---5---5---5---5---5---5--|
  G|5---5---5---5---5---5---5---5--|4---4---4---4---4---4---4---4--|
  D|7---7---7---7---7---7---7---7--|6---6---6---6---6---6---6---6--|
  A|-------------------------------|-------------------------------|
  E|-------------------------------|-------------------------------|
                                                made   a happy  fellow
       You  said                                    me
                right . . . . . . . .

                                                                   
  G|------- ------- ------- -------|------- ------- ------- -------|
  D|3-----------3------------------|3-----------3---------------5--|
  A|-------------------------------|-------------------------------|
  E|-------------------------------|-------------------------------|

  e|0---0-- 0------ ------- -------|0---0-- 0------ ------- -------|
  B|1---1---1---3---3---3---3---3--|1---1---1---3---3---3---3---3--|
  G|2---2---2---2---2---2---2---2--|1---1---1---1---1---1---1---1--|
  D|3---3---3---3---3---3---3---3--|3---3---3---3---3---3---3---3--|
  A|-------------------------------|-------------------------------|
  E|-------------------------------|-------------------------------|

  e/12----- ----10- ------- -------/12----- ----10- ---/12- 10-----|
  B|-------------------------------|----------------------------9--|  
  G|-------------------------------|-------------------------------|
  D|-------------------------------|-------------------------------|
  A|-------------------------------|-------------------------------|
  E|-------------------------------|-------------------------------|

  e|------- ------- ------- -------|------- ------- ------- -------|
  B|-------------------------------|-------------------------------|
  G|--------------------7/9-7-5----|--------------------7/9-7-5----|
  D|----------------------------7--|6---------------------------6--|
  A|-------------------------------|-------------------------------|
  E|-------------------------------|-------------------------------|
                                                        And the light 
    Fellow . . . . . . .            fellow . . . . . . . 



  G|------- ------- ------- -------|------- ------- ------- -------|
  D|-------------------------------|5------------------------------|
  A|3-----------3------------------|-------------------------------|
  E|-------------------------------|------------3------------------|

  e|3---3-- 3---3-- 3---3-- 3---3--|3---3-- 3---3-- 3---3-- 3---3--|
  B|5---5---5---5---5---5---5---5--|3---3---3---3---3---3---3---3--|
  G|5---5---5---5---5---5---5---5--|4---4---4---4---4---4---4---4--|
  D|5---5---5---5---5---5---5---5--|5---5---5---5---5---5---5---5--|
  A|-------------------------------|-------------------------------|
  E|-------------------------------|-------------------------------|

  e|------- ------- ------- -------|------- ------- ------- -------|
  B|8-----------------------8---7--|6-----------------------8------|
  G|-------------------------------|-------------------------------| 
  D|-------------------------------|-------------------------------|
  A|-------------------------------|-------------------------------|
  E|-------------------------------|-------------------------------|

  e|------- ------- ------- -------|------- ------- ------- -------|
  B|-------------------------------|-------------------------------|
  G|-------------------------------|-------------------------------|
  D|5-----------------------5---4--|3------------------------------|
  A|-------------------------------|-------------------------------|
  E|-------------------------------|-------------------------------|
                        of  the                         fell    me
                              night                       on



  G|------- ------- ------- -------|------- ------- ------- -------|  
  D|-------------------------------|------------------------2------|
  A|3-----------3------------------|3-----------5------------------|
  E|-------------------------------|-------------------------------| 

  e|8------ ------- ------- -------|------- ------- ------- -------|
  B|-------------------------------|-------------------------------|
  G|-------------------------------|-------------------------------|
  D|-------------------------------|-------------------------------|
  A|-------------------------------|-------------------------------|
  E|-------------------------------|-------------------------------|

  e|------- ------- ------- -------|------- ------- ------- -------|
  B|5---5---5---5---5---5---5---5--|5---5---5---5---5---5---5---5--|  
  G|5---5---5---5---5---5---5---5--|5---5---5---5---5---5---5---5--|
  D|5---5---5---5---5---5---5---7--|8---8---8---8---8---8---8---8--|
  A|-------------------------------|-------------------------------|
  E|-------------------------------|-------------------------------|
                                                                  I


    01:05

  G|------- ------- ------- -------|------- ------- ------- -------|
  D|3-----------3-----------3------|3-----------3-----------5------|
  A|-------------------------------|-------------------------------|
  E|-------------------------------|-------------------------------|
    F                               Fm
  e|------- ------- ------- -------|------- ------- ------- -------|
  B|6---6---6---6---6---6---6---6--|6---6---6---6---6---6---6---6--|
  G|5---5---5---5---5---5---5---5--|5---5---5---5---5---5---5---5--|
  D|7---7---7---7---7---7---7---7--|6---6---6---6---6---6---6---6--|
  A|-------------------------------|-------------------------------|
  E|-------------------------------|-------------------------------|

  e|1------ ------- ------- -------|1------ ------- ------- -------|
  B|1------------------------------|1------------------------------|
  G|2------------------------------|1------------------------------|
  D|3------------------------------|3------------------------------|
  A|3------------------------------|3------------------------------|
  E|1------------------------------|1------------------------------|
    never will  forget  the       I held  close   I held  tight   Oh,
                          night         you             you



  G|------- ------- ------- -------|------- ------- ------- -------|  
  D|-------------------------------|------------------------2------|
  A|3-----------3------------------|3-----------5------------------|
  E|-------------------------------|-------------------------------|
    C                               C7
  e|------- ------- ------- -------|------- ------- ------- -------|
  B|5---5---5---5---5---5---5---5--|5---5---5---5---5---5---5---5--|  
  G|5---5---5---5---5---5---5---5--|5---5---5---5---5---5---5---5--|
  D|5---5---5---5---5---5---5---7--|8---8---8---8---8---8---8---8--|
  A|-------------------------------|-------------------------------|
  E|-------------------------------|-------------------------------|

  e|0------ ------- ------- -------|0------ ------- ------- -------|
  B|1------------------------------|1------------------------------|
  G|0------------------------------|3------------------------------|
  D|2------------------------------|2------------------------------|
  A|3------------------------------|3------------------------------|
  E|-------------------------------|-------------------------------|
    darling     you                                               The
          don't   know


    01:16

  G|------- ------- ------- -------|------- ------- ------- -------|
  D|3-----------3-----------3------|3-----------3-----------5------|
  A|-------------------------------|-------------------------------|
  E|-------------------------------|-------------------------------|
    F                               Fm
  e|------- ------- ------- -------|------- ------- ------- -------|
  B|6---6---6---6---6---6---6---6--|6---6---6---6---6---6---6---6--|
  G|5---5---5---5---5---5---5---5--|5---5---5---5---5---5---5---5--|
  D|7---7---7---7---7---7---7---7--|6---6---6---6---6---6---6---6--|
  A|-------------------------------|-------------------------------|
  E|-------------------------------|-------------------------------|

  e|1------ ------- ------- -------|1------ ------- ------- -------|
  B|1------------------------------|1------------------------------|
  G|2------------------------------|1------------------------------|
  D|3------------------------------|3------------------------------|
  A|3------------------------------|3------------------------------|
  E|1------------------------------|1------------------------------|
    way   made  my  senses        I fell  love  and now I feel    like 
        you               reel          in



  G|------- ------- ------- -------|------- ------- ------- -------|
  D|------------6/7---------7------|------------5------------------|
  A|3------------------------------|5------------------------------|
  E|-------------------------------|-------------------------------|
    C           Am                  D           G7
  e|------- ------- ------- -------|------- ------- ------- -------|
  B|5---5---5---5---5---5---5---5--|7---7---7---6---6---6---6---6--|
  G|5---5---5---5---5---5---5---5--|7---7---7---4---4---4---4---4--|
  D|5---5---5---7---7---7---7---7--|7---7---7---5---5---5---5---5--|
  A|-------------------------------|-------------------------------|
  E|-------------------------------|-------------------------------|

  e|0------ ----0-- ------- -------|2------ ----1-- ------- -------|
  B|1-----------1------------------|1-----------0------------------|
  G|0-----------2------------------|2-----------0------------------|
  D|2-----------2------------------|0-----------0------------------|
  A|3-----------0------------------|------------2------------------|
  E|-------------------------------|------------3------------------|
    I   will      go    Oh  little        don't you     that    night
            never                 darling         know      the

    01:26
   (That the night)
    was marvelous and yellow (Yellow, yellow) 
    And the light (and the light) 
    Of the night (of the night)
    Fell on me (fell on me)


    SOLO
    01:48                                                         

  G|------- ------- ------- -------|------- ------- ------- -------|
  D|7-----------7-----------7-----8/9------------------------------|
  A|-------------------------------|------------7------------------|
  E|-------------------------------|-------------------------------|

  e|------- ------- ------- -------|------- ------- ------- -------|
  B|5---5---5---5---5---5---5---5--|5---5---5---5---5---5---5---5--|
  G|5---5---5---5---5---5---5---5--|4---4---4---4---4---4---4---4--|
  D|7---7---7---7---7---7---7---7--|6---6---6---6---6---6---6---6--|
  A|-------------------------------|-------------------------------|
  E|-------------------------------|-------------------------------|

  e|------- ------- ------- -----B-|------- ------- ------- -------|
  B|----------------------------810|-------------------------------|
  G|--------5---5-7-----5-7B9------|7B9R7P5-7---7B9----------------|
  D|--7---7------------------------|-------------------------------|
  A|-------------------------------|-------------------------------|
  E|-------------------------------|-------------------------------|



                                                                   
  G|------- ------- ------- -------|------- ------- ------- -------|
  D|3-----------3-----------3------|3-----------3-----------5------|
  A|-------------------------------|-------------------------------|
  E|-------------------------------|-------------------------------|

  e|0---0-- 0------ ------- -------|0---0-- 0------ ------- -------|
  B|1---1---1---3---3---3---3---3--|1---1---1---3---3---3---3---3--|
  G|2---2---2---2---2---2---2---2--|1---1---1---1---1---1---1---1--|
  D|3---3---3---3---3---3---3---3--|3---3---3---3---3---3---3---3--|
  A|-------------------------------|-------------------------------|
  E|-------------------------------|-------------------------------|

  e/12----- ----10- ------- -------/12----- ----10- ---/12- 10-8---|
  B|-------------------------------|-----------------------------9-|  
  G|-------------------------------|-------------------------------|
  D|-------------------------------|-------------------------------|
  A|-------------------------------|-------------------------------|
  E|-------------------------------|-------------------------------|

  e|------- ------- ------- -------|------- ------- ------- -------|
  B|-------------------------------|-------------------------------|
  G|--------------------9---7-5----|--------------------9---7-5----|
  D|----------------------------7--|6---------------------------6--|
  A|-------------------------------|-------------------------------|
  E|-------------------------------|-------------------------------|




  G|------- ------- ------- -------|------- ------- ------- -------|
  D|-------------------------------|5------------------------------|
  A|3-----------3------------------|-------------------------------|
  E|-------------------------------|------------3------------------|

  e|3---3-- 3---3-- 3---3-- 3---3--|3---3-- 3---3-- 3---3-- 3---3--|
  B|5---5---5---5---5---5---5---5--|3---3---3---3---3---3---3---3--|
  G|5---5---5---5---5---5---5---5--|4---4---4---4---4---4---4---4--|
  D|5---5---5---5---5---5---5---5--|5---5---5---5---5---5---5---5--|
  A|-------------------------------|-------------------------------|
  E|-------------------------------|-------------------------------|

  e|------- ------- ------- -------|------- ------- ------- -------|
  B|8-----------------------8---7--|6-------------------6/8--------|
  G|-------------------------------|----------------------------9--|
  D|-------------------------------|-------------------------------|
  A|-------------------------------|-------------------------------|
  E|-------------------------------|-------------------------------|

  e|------- ------- ------- -------|------- ------- ------- -------|
  B|-------------------------------|-------------------------------|
  G|-------------------------------|-------------------------------|
  D|5-------------------5---4---3--|--------------------0---1---2--|
  A|-------------------------------|-------------------------------|
  E|-------------------------------|-------------------------------|




  G|------- ------- ------- -------|------- ------- ------- -------|  
  D|-------------------------------|------------------------2------|
  A|3-----------3------------------|3-----------5------------------|
  E|-------------------------------|-------------------------------|

  e|------- ------- ------- -------|------- ------- ------- -------|
  B|5---5---5---5---5---5---5---5--|5---5---5---5---5---5---5---5--|  
  G|5---5---5---5---5---5---5---5--|5---5---5---5---5---5---5---5--|
  D|5---5---5---5---5---5---5---7--|8---8---8---8---8---8---8---8--|
  A|-------------------------------|-------------------------------|
  E|-------------------------------|-------------------------------|

  e|------- ------- ------- -------|3------ ------- ------- -------|
  B|----------------------------5--|-------------------------------|
  G/5------------------------------|-------------------------------|
  D|-------------------------------|-------------------------------|
  A|-------------------------------|-------------------------------|
  E|-------------------------------|-------------------------------|



                                                                  
    02:09
    I never will forget the way 
    You taught me how to swing and sway 
    Oh darling don't you know 

    02:20
    That ever since that special day 
    My mind can only contemplate 
    The magic that you show 
    Oh little darling don't you know that the night

    


    02:31                                                  

  G|------- ------- ------- -------|------- ------- ------- -------|
  D|7-----------7-----------7-----8/9------------------------------|
  A|-------------------------------|------------7------------------|
  E|-------------------------------|-------------------------------|

  e|------- ------- ------- -------|------- ------- ------- -------|
  B|5---5---5---5---5---5---5---5--|5---5---5---5---5---5---5---5--|
  G|5---5---5---5---5---5---5---5--|4---4---4---4---4---4---4---4--|
  D|7---7---7---7---7---7---7---7--|6---6---6---6---6---6---6---6--|
  A|-------------------------------|-------------------------------|
  E|-------------------------------|-------------------------------|
                     Oooooooooooooooohh         is  beautiful and yellow
        That    night . . . . . . . .
            the


  G|------- ------- ------- -------|------- ------- ------- -------|
  D|3-----------3-----------3------|3-----------3---------------5--|
  A|-------------------------------|-------------------------------|
  E|-------------------------------|-------------------------------|

  e|0---0-- 0------ ------- -------|0---0-- 0------ ------- -------|
  B|1---1---1---3---3---3---3---3--|1---1---1---3---3---3---3---3--|
  G|2---2---2---2---2---2---2---2--|1---1---1---1---1---1---1---1--|
  D|3---3---3---3---3---3---3---3--|3---3---3---3---3---3---3---3--|
  A|-------------------------------|-------------------------------|
  E|-------------------------------|-------------------------------| 

  e/12----- ----10- ------- -------/12----- ----10- ---/12- 10-----|
  B|-------------------------------|----------------------------9--|  
  G|-------------------------------|-------------------------------|
  D|-------------------------------|-------------------------------|
  A|-------------------------------|-------------------------------|
  E|-------------------------------|-------------------------------|

  e|------- ------- ------- -------|------- ------- ------- -------|
  B|-------------------------------|-------------------------------|
  G|--------------------7/9-7-5----|--------------------7/9-7-5----|
  D|----------------------------7--|6---------------------------6--|
  A|-------------------------------|-------------------------------|
  E|-------------------------------|-------------------------------|
                                                        And the light 
    Yellow . . . . . . .            Yellow . . . . . . . 



  G|------- ------- ------- -------|------- ------- ------- -------|
  D|-------------------------------|5-----------5-----------5------|
  A|3-----------3------------------|-------------------------------|
  E|-------------------------------|-------------------------------|
    C                               G
  e|------- ------- ------- -------|------- ------- ------- -------|
  B|5---5---5---5---5---5---5---5--|3---3---3---3---3---3---3---3--|
  G|5---5---5---5---5---5---5---5--|4---4---4---4---4---4---4---4--|
  D|5---5---5---5---5---5---5---5--|5---5---5---5---5---5---5---5--|
  A|-------------------------------|-------------------------------|
  E|-------------------------------|-------------------------------| 

  e|------- ------- ------- -------|------- ------- ------- -------|
  B|8-----------------------8---7--|6-----------------------8---9--|
  G|-------------------------------|-------------------------------|
  D|-------------------------------|-------------------------------|
  A|-------------------------------|-------------------------------|
  E|-------------------------------|-------------------------------|

  e|------- ------- ------- -------|------- ------- ------- -------|
  B|-------------------------------|-------------------------------|
  G|-------------------------------|-------------------------------|
  D|5-----------------------5---4--|3-----------------------1---2--|
  A|-------------------------------|-------------------------------|
  E|-------------------------------|-------------------------------|
                        of  the                         fell    me
                              night                       on
        And the light                   of  the night

    02:47

  G|------- ------- ------- -------|------- ------- ------- -------|
  D|7-----------5------------------|3-----------3-----------5------|
  A|-------------------------------|-------------------------------|
  E|-------------------------------|-------------------------------|
    Am              Am7             Fmaj7
  e|0---0-- 0------ 0---0-- 0---0--|0---0-- 0---0-- 0---0-- 0---0--|
  B|1---1---1-------1---1---1---1--|1---1---1---1---1---1---1---1--|
  G|2---2---2-------0---0---0---0--|2---2---2---2---2---2---2---2--|
  D|-------------------------------|3---3---3---3---3---3---3---3--|
  A|-------------------------------|-------------------------------|
  E|-------------------------------|-------------------------------| 

  e|------- ------- ------- -------|------- ------- ------- -------|
  B/10----------------------10--8--|-------------------------------|
  G|-------------------------------|10-----------------------------|
  D|-------------------------------|-------------------------------|
  A|-------------------------------|-------------------------------|
  E|-------------------------------|-------------------------------|

  e|------- ------- ------- -------|------- ------- ------- -------|
  B|1------------------------------|-------------------------------|
  G|-------------------------------|-------------------------------|
  D|-------------------------------|-------------------------------|
  A|-------------------------------|-------------------------------|
  E|-------------------------------|-------------------------------|
                        Fell    me                          Yeah  the
                          on
        fell    me                      fell    me
          on                              on


  G|------- ------- ------- -------|------- ------- ------- -------|
  D|-------------------------------|------------5------------------|
  A|3-----------3------------------|-------------------------------|
  E|-------------------------------|3------------------------------|
    C                               G
  e|------- ------- ------- -------|------- ------- ------- -------|
  B|5---5---5---5---5---5---5---5--|3---3---3---3---3---3---3---3--|
  G|5---5---5---5---5---5---5---5--|4---4---4---4---4---4---4---4--|
  D|5---5---5---5---5---5---5---5--|5---5---5---5---5---5---5---5--|
  A|-------------------------------|-------------------------------|
  E|-------------------------------|-------------------------------|
    lala  lala  lala  lala  la  la  light               fell    me
                                                          on



  G|------- ------- ------- -------|------- ------- ------- -------|
  D|7-----------5---------------5--|3-----------3-----------5------|
  A|-------------------------------|-------------------------------|
  E|-------------------------------|-------------------------------|
    Am          Am7                 Fmaj7
  e|0---0-- 0---0-- 0---0-- 0---0--|0---0-- 0---0-- 0---0-- 0---0--|
  B|1---1---1---1---1---1---1---1--|1---1---1---1---1---1---1---1--|
  G|2---2---2---0---0---0---0---0--|2---2---2---2---2---2---2---2--|
  D|-------------------------------|3---3---3---3---3---3---3---3--|
  A|-------------------------------|-------------------------------|
  E|-------------------------------|-------------------------------|
                    yeah    fell    me          Oh,         la  la
                        that  on
        fell    me                      fell    me
          on                              on


  G|------- ------- ------- -------|------- ------- ------- -------|
  D|-------------------------------|5------------------------------|
  A|3-----------3------------------|-------------------------------|
  E|-------------------------------|------------3------------------|
    C                               G
  e|------- ------- ------- -------|------- ------- ------- -------|
  B|5---5---5---5---5---5---5---5--|3---3---3---3---3---3---3---3--|
  G|5---5---5---5---5---5---5---5--|4---4---4---4---4---4---4---4--|
  D|5---5---5---5---5---5---5---5--|5---5---5---5---5---5---5---5--|
  A|-------------------------------|-------------------------------|
  E|-------------------------------|-------------------------------|
    lala  lala  lala  lala  la  la  light               fell    me
                                                          on




  G|------- ------- ------- -------|------- ------- ------- -------|
  D|-------------------------------|-------------------------------|
  A|3------------------------------|3------------------------------|
  E|-------------------------------|-------------------------------|
    C
  e|------- ------- ------- -------|------- ------- ------- -------|
  B|5---5---5---5---5---5---5---5--|5---5---5---5---5---5---5---5--|
  G|5---5---5---5---5---5---5---5--|5---5---5---5---5---5---5---5--|
  D|5---5---5---5---5---5---5---5--|5---5---5---5---5---5---5---5--|
  A|-------------------------------|-------------------------------|
  E|-------------------------------|-------------------------------|
                            Oooooh              Yes the   fell  me
                                                      light on
        fell    me                      fell    me
          on                              on


  G|------- ------- ------- -------|------- ------- ------- -------|
  D|-------------------------------|-------------------------------|
  A|3------------------------------|3------------------------------|
  E|-------------------------------|-------------------------------|

  e|------- ------- ------- -------|------- ------- ------- -------|
  B|5---5---5---5---5---5---5---5--|5---5---5---5---5---5---5---5--|
  G|5---5---5---5---5---5---5---5--|5---5---5---5---5---5---5---5--|
  D|5---5---5---5---5---5---5---5--|5---5---5---5---5---5---5---5--|
  A|-------------------------------|-------------------------------|
  E|-------------------------------|-------------------------------|
        fell    me                      fell    me
          on                              on



  G|------- ------- ------- -------|------- ------- ------- -------|
  D|-------------------------------|-------------------------------|
  A|3------------------------------|3------------------------------|
  E|-------------------------------|-------------------------------|

  e|------- ------- ------- -------|------- ------- ------- -------|
  B|5---5---5---5---5---5---5---5--|5---5---5---5---5---5---5---5--|
  G|5---5---5---5---5---5---5---5--|5---5---5---5---5---5---5---5--|
  D|5---5---5---5---5---5---5---5--|5---5---5---5---5---5---5---5--|
  A|-------------------------------|-------------------------------|
  E|-------------------------------|-------------------------------|

  e|------- ------- ------- -------|12----- ------- ------- -------|
  B|13-----------------------------|13-----------------------------|
  G|12-----------------------------|12-----------------------------|
  D|14-----------------------------|-------------------------------|
  A|-------------------------------|-------------------------------|
  E|-------------------------------|-------------------------------|
        fell    me                      fell    me
          on                              on



  G|------- ------- ------- -------|------- ------- ------- -------|
  D|-------------------------------|-------------------------------|
  A|3------------------------------|3------------------------------|
  E|-------------------------------|-------------------------------|

  e|------- ------- ------- -------|------- ------- ------- -------|
  B|5---5---5---5---5---5---5---5--|5---5---5---5---5---5---5---5--|
  G|5---5---5---5---5---5---5---5--|5---5---5---5---5---5---5---5--|
  D|5---5---5---5---5---5---5---5--|5---5---5---5---5---5---5---5--|
  A|-------------------------------|-------------------------------|
  E|-------------------------------|-------------------------------|

  e|12----- ------- ------- -------|12----- ------- ------- -------|
  B|13-----------------------------|13-----------------------------|
  G|12-----------------------------|12-----------------------------|
  D|-------------------------------|-------------------------------|
  A|-------------------------------|-------------------------------|
  E|-------------------------------|-------------------------------|
        fell    me                      fell    me
          on                              on



  G|------- ------- ------- -------|------- ------- ------- -------|
  D|-------------------------------|-------------------------------|
  A|3------------------------------|3------------------------------|
  E|-------------------------------|-------------------------------|

  e|------- ------- ------- -------|------- ------- ------- -------|
  B|5---5---5---5---5---5---5---5--|5---5---5---5---5---5---5---5--|
  G|5---5---5---5---5---5---5---5--|5---5---5---5---5---5---5---5--|
  D|5---5---5---5---5---5---5---5--|5---5---5---5---5---5---5---5--|
  A|-------------------------------|-------------------------------|
  E|-------------------------------|-------------------------------|

  e|15----- ------- ------- -------|11----- ------- ------- -------|
  B|13-----------------------------|13-----------------------------|
  G|12-----------------------------|12-----------------------------|
  D|-------------------------------|-------------------------------|
  A|-------------------------------|-------------------------------|
  E|-------------------------------|-------------------------------|
        fell    me                      fell    me
          on                              on

    .......................... Fade out ...........................






        B  Bend
        R  Release
        /  Slide up
        \  Slide down
        H  Hammer-on
        P  Pull-off
        ~  Vibrato
        +  Harmonic
        x  Mute note
        .  Play note like a dot in standard notation
        ^  Ties two notes together
        (. Pause




Related for When The Night tab