Song name
# A B C D E F G H I J K L M N O P Q R S T U V W X Y Z

Paul Mccartney - Till There Was You tab

Hello!

This is a tab for Till There Was You with the guitar part as performed by
Rusty Anderson at Paul McCartneys 2005 US Tour. A video can be found here:

 (http://www.youtube.com/watch?v=vJaap5XwiPA)

I take absolutely no credit for the video. Anyways, thanks for looking!

Also, This song MAY NOT be re-submitted (as is  or modified) on ANY website by someone 
than myself. I'll be checking. ☺


 Intro


 (F)  (F#dim)  (Gm)     (C9) (F)   (F#dim)  (Gm) (C9)|

|-1-------------------------|-1-----------------------|
|---1---------1/3-----------|---1-------1--1/3--------|
|-----2-----------3---------|-----2---2--------3------|
|-------4-----------5--2----|-------4------------5--2-|
|-------------------------3-|-------------------------|
|---------------------------|-------------------------|


Verse 1


 (F)           (F#dim) (G#dim) (Gm)        (Bbm)

|-1---1---1----2--2--2----5----3---3--3----6--8--6h8p6-----|
|-1---1---1----1--1--1----4----3---3--3----6-----------8---|
|-2---2---2----2--2--2----5----3---3--3----6-------------6-|
|-3---3---3----1--1--1----4----5---5--5--------------------|
|----------------------------------------------------------|
|----------------------------------------------------------|


 (F)  (Am)(G#m)(Gm) (C7) (F)       (Gm)  (C9)

|-------5---4---3----0----1---1--1--3--3--3-3-|
|-------5---4---3----1----1---1--1--3--3--3-3-|
|-5v----5---4---3----3----2---2--2--3--3--3-3-|
|--------------------2----3---3--3--5--5--2-2-|
|--------------------3------------------------|
|---------------------------------------------|


Verse 2


 (F)       (F#dim)(G#dim)(D#dim)(Gm)        (Bbm)

|-1---1--1-------5---8---11------3---3--3--------6-----|
|-1---1--1-------4---7---10------3---3--3----------6---|
|-2---2--2-------5---8---11------3---3--3----5h6-----6-|
|-3---3--3-----------------------5---5--5--------------|
|------------------------------------------------------|
|------------------------------------------------------|


 (F)  (Am)(G#m)(Gm)  (C7) (F)       (F9)

|-------12--11--10----0----1---1--1--3--3--3--3-|
|-6v----13--12--11----1----1---1--1--4--4--4--4-|
|-------14--13--12----3----2---2--2--2--2--2--2-|
|---------------------2----3---3--3--3--3--3--3-|
|---------------------3-------------------------|
|-----------------------------------------------|


 Bridge (?)


 (Bb)          (Bbm)   (F)      (D9)

|-1--1---------------------------------|
|-3--3---6h8p6-----------------------1-|
|-3--3---------7-6v----5----5------2---|
|-3--3--------------------7------4-----|
|--------------------------------------|
|--------------------------------------|


 (Gm)    (Gm7+)    (G7)           (C)         (C+)

|------------------------3---------3-3-3-3----4-4-4--8-|
|-----3-------3--------3---3-------5-5-5-5----5-5-5--9-|
|---3-------3--------4-------4-----5-5-5-5----5-5-5--9-|
|-5-------4--------3-----------------------------------|
|------------------------------------------------------|
|------------------------------------------------------|


 Verse 3


 (F)                           (Gm)          (Bbm)

|-8----8----8------2-2-2-2--------3----3---3-------6-----|
|-10---10---10-----1-1-1-1--------3----3---3-----6---6---|
|-10---10---10-----2-2-2-2--------3----3---3-----6-----6-|
|------------------1-1-1-1--------5----5---5-----6-------|
|--------------------------------------------------------|
|--------------------------------------------------------|


 (F)   (Am)(G#m)(Gm) (C7)   (F)        (Gm)   (C9)

|-1-----5---4---3------------1---1--1---3--3---3--3-|
|-1-----5---4---3-----1------1---1--1---3--3---3--3-|
|-2-----5---4---3-----3------2---2--2---3--3---3--3-|
|-3-------------------2------3---3--3---5--5---2--2-|
|---------------------3-----------------------------|
|---------------------------------------------------|


 Solo


 (F)                       (F#dim)                (Gm)

|-------1------------------------------------------3-3-5--3--5--3-5---|
|-----1---3--1h3p1--------------1-4-3h4p3-1--------3-3-3--3--3--3-3---|
|-2-3---------------3-2-0-----2-------------3-2-3--3-3-5--3--5--3-5---|
|-------------------------3-4-----------------------------------------|
|---------------------------------------------------------------------|
|---------------------------------------------------------------------|


 (Bbm)                (F) (Am)(G#m)(Gm)   (C7)   (F)

|-6--6-6-8--6--8-6-8---1----12--11--10-----0------1-|
|-6--6-6-6--6--6-6-6---1----13--12--11-----1------1-|
|-6--6-6-8--6--8-6-8---2----14--13--12-----3------2-|
|----------------------3-------------------2------3-|
|------------------------------------------3--------|
|---------------------------------------------------|


 Bridge (?)


 (F9)           (Bb)          (Bbm)       (F)              (D9)

|-------------1-------------------------------------------------------|
|-----------1---1/3-----6h8--6-------------10v-----10v-------7v----7v-|
|---------2---------------------6-------------------------------------|
|---1--4--------------------------------10v----10v--------------7v----|
|-3-------------------------------------------------------------------|
|---------------------------------------------------------------------|


 (Gm)   (Gm7+)(G7)              (C)     (C+)

|--------------------------------3--3--3--4--4--4-4-|
|-8--8--8--7----6--6--6--6-------5--5--5--5--5--5-5-|
|--------------------------------5--5--5--5--5--5-5-|
|---------------------------------------------------|
|---------------------------------------------------|
|---------------------------------------------------|


 Verse 4


 (F)             (F#dim)(G#dim)(D#dim)(Gm)

|-1---1--1-------5-----8--8----11----3---3--3----------------|
|-1---1--1-------4-----7--7----10----3---3--3-----6----------|
|-2---2--2-------5-----8--8----11----3---3--3-----6--8--6--8-|
|-3---3--3---------------------------5---5--5-----6----------|
|------------------------------------------------------------|
|------------------------------------------------------------|

 (F)  (Am)(G#m)(Gm) (C7)    (F)

|-1-----5---4---3-----0------------1---------------3p1-----|
|-1-----5---4---3-----1----------1---1-----------1-----1---|
|-2-----5---4---3-----3--------2-------2-------2---------2-|
|-3-------------------2------3-----------3---3-------------|
|---------------------3------------------------------------|
|----------------------------------------------------------|


 Outro


 (C)   (E)   (C7)            (F)

|-0--0--------0--0-0----0----8---8--8--10--8---10--8---10--8--|
|-1--1--0--0--1--1-1----1----10--10-10-10--10--10--10--10--10-|
|-0--0--1--1--3--3-3----3----10--10-10-10--10--10--10--10--10-|
|-2--2--2--2--2--2-2----2-------------------------------------|
|-3--3--2--2--3--3-3----3-------------------------------------|
|-------------------------------------------------------------|


 (F)               (C#)             (F)

|-9---9--9--11--9---11--9---11--9----8---8--8--10--8---10--8---10--8---10-|
|-9---9--9--9---9---9---9---9---9----10--10-10-10--10--10--10--10--10--10-|
|-10--10-10-10--10--10--10--10--10---10--10-10-10--10--10--10--10--10--10-|
|-------------------------------------------------------------------------|
|-------------------------------------------------------------------------|
|-------------------------------------------------------------------------|

|-0~~~~~~~~~~~~-|
|-1~~~~~~~~~~~~-|
|-2~~~~~~~~~~~~-|
|-3~~~~~~~~~~~~-|
|---------------|
|---------------|
Tap to rate this tab
# A B C D E F G H I J K L M N O P Q R S T U V W X Y Z