Song name
# A B C D E F G H I J K L M N O P Q R S T U V W X Y Z

Paul Mccartney - Singalong Junk tab

SINGALONG JUNK
FROM THE ALBUM MCCARTNEY (1970)
TABBED BY ERIC VOIGT

 F#m     C#7    F#m7/E   Dmaj     A     Asus4   D7sus4   Dm       E
|-2-|   |---|   |-2-|   |-2-|   |-0-|   |-0-|   |-3-|   |-1-|   |-0-|
|-2-|   |-2-|   |-2-|   |-2-|   |-2-|   |-3-|   |-3-|   |-3-|   |-0-|
|-2-|   |-4-|   |-2-|   |-2-|   |-2-|   |-2-|   |-2-|   |-2-|   |-1-|
|-4-|   |-3-|   |-2-|   |-0-|   |-2-|   |-2-|   |-0-|   |-0-|   |-2-|
|---|   |-4-|   |---|   |---|   |-0-|   |-0-|   |---|   |---|   |-2-|
|---|   |---|   |---|   |---|   |---|   |---|   |---|   |---|   |---|

|-----------------------------------2---2----2--4-5-7--2-----5--|
|--2--3-2--------2---------2--3--2------2----2------------2-----|
|---------2---4-----4------2------------2----2------------2-----|
|--4-------------------3---2------------0----0---------0--------|
|-------------4-------------------------------------------------|
|---------------------------------------------------------------|
|
| F#m        C#7          F#m7/E       Dmaj7
|
|-------X-X----------------------X-X-------X-X----X-X-----X--X--|
|-------X-X---------X-X----------X-X-------X-X----X-X-----X--X--|
|-------X-X---------X-X----------X-X-------X-X----X-X-----X--X--|
|--X----------------X-X----X------------X-------X------X--------|
|-------------X-------------------------------------------------|
|---------------------------------------------------------------|

|-----------------|
|---2--3----2--2--|
|---2--2----2--2--|
|---2--2----2--2--|
|-0-0--0--0-0--0--|
|-----------------|
|
|   A Asus4 A
|
|---X--X----X--X--|
|---X--X----X--X--|
|---X--X----X--X--|
|---X--X----X--X--|
|-X-------X-------|
|-----------------|

|-3--1-0---------------0---3--1-0-------------|
|-3--3-2-3-2-0-2-3-2-3-2---3--3-2-3-2-0-2-3-2-|
|--------4-2-1-2-4-2-4------------4-2-1-2-4-2-|
|-0------------------------0------------------|
|------0-----------0------------0-----------0-|
|------------0------------------------0-------|
|
|
|
|-D7sus4-A---E-----A-----D7sus4-A-----E-----A-|
Tap to rate this tab
# A B C D E F G H I J K L M N O P Q R S T U V W X Y Z