Song name
# A B C D E F G H I J K L M N O P Q R S T U V W X Y Z

Paul Mccartney - Only Mama Knows tab

I hope I got this right, I'm kind of new to the whole tablature thing. It at least sounds right.

Standard tuning

Violin Intro 
        (   stuff below   )x12
e|--7-2-|-3-0-3-0-3-0-7-2-|
b|------|-----------------|
g|------|-----------------|
d|------|-----------------|
a|------|-----------------|
e|------|-----------------|

Guitar Intro*
*notes in parenthesis are eighth notes and the last note is sustained
e|---------------------------|
b|---------------------------|
g|--------------2-0----------|
d|----------0-2-----(2-0)-2--|
a|------0-2------------------|
e|--0-3----------------------|
Tap to rate this tab
# A B C D E F G H I J K L M N O P Q R S T U V W X Y Z