Paul Mccartney - Junk tab

I'm pretty sure it's standard tuning

3/4

INTRO AND VERSES:

e|--5---5-5--|--4--5--4--4--|--2--4--2--5--|--2--2--4--5---|
B|------2-2--|-----------2--|--------------|-----2---------|
G|------2-2--|-----------4--|--------------|-----2---------|
D|--4--------|--3-----------|--2-----------|--0------------|
A|-----------|--------------|--------------|---------------|
E|-----------|--------------|--------------|---------------|
    motor...    handlebars..   bicyles.....   two....

e|-2--4--5-5/7-|-2--2---5--|--2p0-------|--------------|---|
B|-2-----------|-2--2------|--------2h3-|-3p2--------3-|-2-|
G|-2-----------|-2--2------|--------2h4-|-4p2--------4-|-2-|
D|-0-----------|-0--0------|------2-----|---------2----|---|
A|-------------|-----------|--0---------|-----0--------|---|
E|-------------|-----------|------------|--------------|---|
   broken....    jubliee.....

CHORUS:
(regular strum)
e|-3-3-3-1---0---------------------------------------------|
B|-3-3-3-3---2--0------0--2--3--2--3--5--------------------|
G|-2-2-2-2---2-----2---1--2--4--2--4--6--------------------|
D|-0-0-0-0---2---------2--2--------------------------------|
A|---------------------2--0--------------------------------|
E|---------------------------------------------------------|
  buy........b..s..t...s..i..t..s..window

e|-3-3-3-1---0-----------------------5--5--5---------------|
B|-3-3-3-3---2--0------0--2--3--2----2--2--2---------------|
G|-2-2-2-2---2-----2---1--2--4--2----2--2--2---------------|
D|-0-0-0-0---2---------2--2----------2--2--2---------------|
A|---------------------2--0----------0--0--0---------------|
E|---------------------------------------------------------|
   why.......w..s...t..j..i..t..yard...

OUTRO:
after repeating chorus 
e|-3-3-3-1---0------------------5--5--5----|
B|-3-3-3-3---2--0------0--2--3--2--2--2----|
G|-2-2-2-2---2-----2---1--2--4--2--2--2----|
D|-0-0-0-0---2---------2--2-----4--4--4----|
A|---------------------2--0----------------|
E|-----------------------------------------|

e|--4--5--4--4--|--2--4--2--5--|-----2---------|
B|-----------2--|--------------|-----2---------|
G|-----------4--|--------------|-----2---------|
D|--3-----------|--2-----------|-----0---------|
A|--------------|--------------|---------------|
E|--------------|--------------|---------------|

play slower...... then FAST!           slow
e|--2--4--5--5/7---2---4p0----------------------------------5--|
B|--2--------------2-------3p2--0---0-----2-3-2h3p2------------|
G|--2--------------2--------------2------2----------2----------|
D|--0--------------0--------------------2-------------0--------|
A|-------------------------------------0----------------/4--0--|
E|-------------------------------------------------------------|



thank you for using my tab!! I'm going to put more on SOON!!!
Tap to rate this tab
 
# A B C D E F G H I J K L M N O P Q R S T U V W X Y Z