Song name
# A B C D E F G H I J K L M N O P Q R S T U V W X Y Z

Paul Mccartney - Waterfalls tab

--------------------------------------------------------------------------
		Waterfalls - Paul McCartney
---------------------------------------------------------------------------
Tabbed by: maguri
Tuning: Standard

Paul McCartney
Waterfalls (1980)
(Paul McCartney)
From: "McCartney II"


---------------------------------------------------------------------------

Capo 2nd fret

VERSE
(finger-picked)
  A       G        Em               Bm     G         A
e|----0-----------|----------------|----2-----------|----------------|
B|2-----------0---|----------------|3-----------0---|2---------------|
G|--------2-------|0-----------0---|4-------2-------|2---2-------2---|
D|--2---2---0---0-|2-4-2-----2---2-|--4--4----0---0-|--2---2---2---2-|
A|0---------------|--------2-------|2---------------|0-------0-------|
E|--------3-------|0-----0---------|--------3-------|----------------|
  A       G        2/4 Em   Bm      Bm/A     G
e|----0-----------|--------|------------2---|----------------|
B|2-----------0---|--------|3-2-0-3-------0-|----------------|
G|--------2-------|0-------|4---------------|----0-------0---|
D|--2---2---0---0-|--4-2---|----------4-----|--0---0---0-----|
A|0---------------|--------|2-------0-------|----------------|
E|--------3-------|0-----0-|----------------|3-------3-------|

CHORUS
(strummed: thumb)
 Em  Em7 Dmaj7 D6 D        %                 %                  %
e|0------(2)-------|0------(2)-------|0------(2)-------|0------(2)-------|
B|0---3---2--------|0---3---2--------|0---3---2--------|0---3---2--------|
G|0---0---2---4p2--|0---0---2---4p2--|0---0---2---4p2--|0---0---2---4p2--|
D|2---2---0-0-0--4-|2---2---0-0-0--4-|2---2---0-0-0--4-|2---2---0-0-0--4-|
A|2-2---2(0)--0--0-|2-2---2(0)--0--0-|2-2---2(0)--0--0-|2-2---2(0)--0--0-|
E|0-0---0----------|0-0---0----------|0-0---0----------|0-0---0----------|
                   (finger-picked from here)
          %         Bm/E             Em(7)/D          Bm7/E
e|0------(2)-------|2---2-2---------|0---0-0---------|2---2-2---------|
B|0---3---2--------|3---3-3-----3---|0---0-0---------|3---3-3-----3---|
G|0---0---2---4p2--|4---4-4-----4---|0-0-------------|2---2-2-----2---|
D|2---2---0-0-0--4-|--4---------4---|0-------0-------|------------4---|
A|2-2---2(0)--0--0-|----------------|----------------|----------------|
E|0-0---0----------|0-------0-------|----------------|0-------0-------|

  E
e|0---------------|
B|0---------------|
G|1---------------|
D|2------(2-0-----|
A|2-----------4-2)|
E|0---------------|
         (last time)

SOLO
(finger-picked)

  A       G        Em               Bm     G         A
e|----0-----------|----------------|----2-----------|------------------|
B|2-----------0---|----------------|3-----------0---|2---------223p2---|
G|--2-----2-------|0-----------0---|4-------2-------|2---2----------4p2|
D|----------0---0-|2-4-2-----2---2-|--4--4----0---0-|--2---2-----------|
A|0---------------|--------2-------|2---------------|0-------0---------|
E|--------3-------|0-----0---------|--------3-------|------------------|
  A       G        2/4 Em   Bm      Bm/A     G
e|----0-----------|--------|------------2---|----------------|
B|2-----------0---|--------|3-2-0-3-------0-|--0-2-3v--------|
G|2-------2-------|0-------|4---------------|--0---------0---|
D|--2---2---0---0-|--4-2---|4---------4-----|----------------|
A|0---------------|--------|2-------0-------|----------------|
E|--------3-------|0-----0-|----------------|3-------3-------|

---------------------------------------------------------------------------

SONG

Capo 2nd fret

VERSE 1
Don't go jumping waterfalls,
Please keep to the lake.
People who jump waterfalls
sometimes can make mistakes.

CHORUS 1
And I need love, yeah I need love
Like a second needs an hour,
Like a raindrop needs a shower.
Yeah I need love every minute of the day
And it wouldn't be the same 
If you ever should decide to go away.

SOLO (see above)
| A G | Em | Bm G | A |
| A G |2/4 Em | Bm Bm/A | G |

CHORUS 2
And I need love, yeah I need love
Like a castle needs a tower,
Like a garden needs a flower.
Yeah I need love every minute of the day
And it wouldn't be the same 
If you ever should decide to go away.

VERSE 2
Don't go chasing polar bears,
In the great unknown.
Some big friendly polar bear
Might want to take you home.

CHORUS 3
And I need love, yeah I need love
Like a second needs an hour,
Like a raindrop needs a shower.
Yeah I need love every minute of the day
And it wouldn't be the same 
If you ever should decide to go away.

VERSE 3
Don't run after motor cars,
Please stay on the side.
Someone's glossy motor car
Might take you for a ride.

CHORUS 4
And I need love, yeah I need love
Like a castle needs a tower,
Like a garden needs a flower.
Yeah I need love, say I need love.
Like a raindrop needs a shower.
Like a second needs an hour,
Every minute of the day
And it wouldn't be the same 
If you ever should decide to go away.

[freely]
Don't go jumping waterfalls,
Please keep to the lake.
---------------------------------------------------------------------------
Tap to rate this tab
 
# A B C D E F G H I J K L M N O P Q R S T U V W X Y Z