Song name
# A B C D E F G H I J K L M N O P Q R S T U V W X Y Z

Paul Mccartney - Here Today tab

    -----------------------------------------------------------

    PAUL McCARTNEY HERE TODAY. From TUG OF WAR album. 
                               Released 26th April 1982.
   

    -----------------------------------------------------------

    Tabbed by:PJVillanueva



Em6         Cmaj7
And if I say I really knew you well,
     G                    G F# E
What would your answer be?
Em 
If you were here today.
Cm Csus2 Cm Csus2      G 
Uh, uh, uh, here today. 
Em6        
Well, knowing you,
Cmaj7 
You'd probably laugh and say
     G                    G F# E 
That we were worlds apart.
Em                 
If you were here today.
Cm Csus2 Cm Csus2   G
Uh, uh, uh, here today. 
C              F
But as for me,
                          C        F
I still remember how it was before 
                          C     Am   Em
And I am holding back the tears no more.
C   Am   Em 
Uh, uh, uh
, F         D7
I love you, uh. 
G                             
What about the time we met? 
           Cdim7 
Well, I suppose that you could say 
               Em
That we were playing hard to get.
Em 
Didn't understand a thing,
             Am        D7 
But we could always sing. 
Em
What about the night we cried? 
              Cdim7
Because there wasn't any reason
   Em
Left to keep it all inside
Em 
Never understood a word,
              Am      D7                Em
But you were always there with a smile.
 
Cm6          Cmaj7
And if I say I really loved you
        G                    G F# E
And was glad you came along.
Em 
Then you were here today,
Cm  Csus2 Cm Csus2                 G
Uh, uh, uh, for you were in my song.
 
Cm  Csus2 Cm Csus2      G  C  G
Uh, uh, uh, here today.





    Em6                             Cmaj7                       
  e|------- ------- ------- -------|------- ------- ------- -------|
  B|------------0---------------0--|------------0---------------0--|
  G|--------0---------------0------|--------0---------------0------|
  D|---2----------------2----------|----2---------------2----------|
  A|4---------------4--------------|3---------------3--------------|
  E|-------------------------------|-------------------------------|




    G                               Em
  e|----3-- 3---3-- ------- -------|----0-- 0---0-- 0--0--- 0---0--|
  B|----0---0---0------------------|----0---0---0---0--0----0---0--|
  G|----0---0---0------------------|----0---0---0---0--0----0---0--|
  D|----0---0---0------------------|----2---2---2---2--2----2---2--|
  A|----2---2---2-------2-------2--|----2---2---2---2--2----2---2--|
  E|3---3---3---3---3-------2------|0---0---0---0---0--0----0---0--|




    Cm              Csus2           Cm              Csus2
  e|----3-- 3---3-- 3---3-- 3---3--|3---3-- 3---3-- 3---3---3---3--|
  B|----4---4---4---3---3---3---3--|4---4---4---4---3---3---3---3--|
  G|----5---5---5---5---5---5---5--|5---5---5---5---5---5---5---5--|
  D|----5---5---5---5---5---5---5--|5---5---5---5---5---5---5---5--|
  A|3---3---3---3---3---3---3---3--|3---3---3---3---3--------------|
  E|-------------------------------|-------------------------------|




    G                               Cdim7           Em
  e|3---3-- 3---3-- 3---3-- 3---3--|2---2-- 2---2-- 0---0-- 0---0--|
  B|0---0---0---0---0---0---0---0--|1---1---1---1---0---0---0---0--|
  G|0---0---0---0---0---0---0---0--|2---2---2---2---0---0---0---0--|
  D|0---0---0---0---0---0---0---0--|1---1---1---1---2---2---2---2--|
  A|2---2---2---2---2---2---2---2--|----------------2---2---2---2--|
  E|3---3---3---3---3---3---3---3--|----------------0---0---0---0--|
    What about the time we met ....

    Em                              Am          D7
  e|0---0-- 0---0-- 0---0-- 0---0--|0---0-- 0---2-- ----2-- 2---2--|
  B|0---0---0---0---0---0---0---0--|1---1---1---1-------1---1---1--|
  G|0---0---0---0---0---0---0---0--|2---2---2---2-------2---2---2--|
  D|2---2---2---2---2---2---2---2--|2---2---2---0-------0---0---0--|
  A|2---2---2---2---2---2---2---2--|0---0---0----------------------|
  E|0---0---0---0---0---0---0---0--|-------------------------------|
    Didn't understand a thing ...



    Em                              Cdim7           Em
  e|0---0-- 0---0-- 0---0-- 0---0--|2---2-- 2---2-- 0---0-- 0---0--|
  B|0---0---0---0---0---0---0---0--|1---1---1---1---0---0---0---0--|
  G|0---0---0---0---0---0---0---0--|2---2---2---2---0---0---0---0--|
  D|2---2---2---2---2---2---2---2--|1---1---1---1---2---2---2---2--|
  A|2---2---2---2---2---2---2---2--|----------------2---2---2---2--|
  E|0---0---0---0---0---0---0---0--|----------------0---0---0---0--|
    What about the night we cried ...



    Em                              Am          D7
  e|0---0-- 0---0-- 0---0-- 0---0--|0---0-- 0---2-- ----2-- 2---2--|
  B|0---0---0---0---0---0---0---0--|1---1---1---1-------1---1---1--|
  G|0---0---0---0---0---0---0---0--|2---2---2---2-------2---2---2--|
  D|2---2---2---2---2---2---2---2--|2---2---2---0-------0---0---0--|
  A|2---2---2---2---2---2---2---2--|0---0---0----------------------|
  E|0---0---0---0---0---0---0---0--|-------------------------------|
    Never understood a thing



    C                               F
  e|0---0-- 0---0-- 0---0-- 0---0--|1---1-- 1---1-- 1---1-- 1---1--|
  B|1---1---1---1---1---1---1---1--|1---1---1---1---1---1---1---1--|
  G|0---0---0---0---0---0---0---0--|2---2---2---2---2---2---2---2--|
  D|2---2---2---2---2---2---2---2--|3---3---3---3---3---3---3---3--|
  A|3---3---3---3---3---3---3---3--|3---3-------3---3---3---3---3--|
  E|3---3---3---3---3---3---3---3--|-------------------------------|
    But as for me ...




    C                               F
  e|0---0-- 0---0-- 0---0-- 0---0--|1---1-- 1---1-- 1---1-- 1---1--|
  B|1---1---1---1---1---1---1---1--|1---1---1---1---1---1---1---1--|
  G|0---0---0---0---0---0---0---0--|2---2---2---2---2---2---2---2--|
  D|2---2---2---2---2---2---2---2--|3---3---3---3---3---3---3---3--|
  A|3---3---3---3---3---3---3---3--|3---3-------3---3---3---3---3--|
  E|3---3---3---3---3---3---3---3--|-------------------------------|

          
    C               Am              Em
  e|0---0-- 0---0-- 0---0-- 0---0--|0---0-- 0---0-- 0---0-- 0---0--|
  B|1---1---1---1---1---1---1---1--|0---0---0---0---0---0---0---0--|
  G|0---0---0---0---2---2---2---2--|0---0---0---0---0---0---0---0--|
  D|2---2---2---2---2---2---2---2--|2---2---2---2---2---2---2---2--|
  A|3---3---3---3---0---0---0---0--|2---2---2---2---2---2---2---2--|
  E|3---3---3---3------------------|0---0---0---0---0---0---0---0--|
    tears           no              more                       



    C               Am              Em
  e|0---0-- 0---0-- 0---0-- 0---0--|0---0-- 0---0-- 0---0-- 0---0--|
  B|1---1---1---1---1---1---1---1--|0---0---0---0---0---0---0---0--|
  G|0---0---0---0---2---2---2---2--|0---0---0---0---0---0---0---0--|
  D|2---2---2---2---2---2---2---2--|2---2---2---2---2---2---2---2--|
  A|3---3---3---3---0---0---0---0--|2---2---2---2---2---2---2---2--|
  E|3---3---3---3------------------|0---0---0---0---0---0---0---0--|
    Uh                  uh          uh                            I

    F                               D7
  e|1---1-- 1---1-- 1---1-- 1---1--|2---2-- ----2-- ----2-- 2------|
  B|1---1---1---1---1---1---1---1--|1---1-------1-------1---1------|
  G|2---2---2---2---2---2---2---2--|2---2-------2-------2---2------|
  D|3---3---3---3---3---3---3---3--|0---0-------0-------0---0------|
  A|-3--3---3---3---3---3---3---3--|-------------------------------|
  E|-------------------------------|-------------------------------|
    love you                        Uh









        B  Bend
        R  Release
        /  Slide up
        \  Slide down
        H  Hammer-on
        P  Pull-off
        ~  Vibrato
        +  Harmonic
        x  Mute note
        .  Play note like a dot in standard notation
        ^  Ties two notes together
        (. Pause



Tap to rate this tab
 
# A B C D E F G H I J K L M N O P Q R S T U V W X Y Z