Song name
# A B C D E F G H I J K L M N O P Q R S T U V W X Y Z

Paul Mccartney - Hope Of Deliverance tab

Solo
Guitar 1
e|------------10-12-13-12--13-15----10-12----------|
B|-------10/13-------------------13------10--------|
G|-10-12-------------------------------------------|
D|-------------------------------------------------|
A|-------------------------------------------------|
E|-------------------------------------------------|

e|-----------------12--13-15----10-12--------------|
B|---10--10------------------13-------10-12-13/----|
G|-12--12--12-10-9------------------------------10-|
D|-------------------------------------------------|
A|-------------------------------------------------|
E|-------------------------------------------------|


e|----------------10-12/13-12-12/13-12-10----------|
B|-----------10-13------------------------13-------|
G|------10-12--------------------------------------|
D|-12-14-------------------------------------------|
A|-------------------------------------------------|
E|-------------------------------------------------|

e|-12-13-15--17-17-17-15-13-12---12-13--13--13-15-13-12--|
B|-----------------------------13------------------------|
G|-------------------------------------------------------|
D|-------------------------------------------------------|
A|-------------------------------------------------------|
E|-------------------------------------------------------|

e|----------17-17-17-15-13-12-17-19-17-15-13-12----|
B|-17-17-17----------------------------------------|
G|-------------------------------------------------|
D|-------------------------------------------------|
A|-------------------------------------------------|
E|-------------------------------------------------|

e|-17-17-17-15-13-12---12-13--13--13-15-13--13-13-15-|
B|------------------13-------------------------------|
G|---------------------------------------------------|
D|---------------------------------------------------|
A|---------------------------------------------------|
E|---------------------------------------------------|

Guitar 2
e|------10-12-13------------------------------------------|
B|-10-12--------13--13-15---12-13----------------------13-|
G|------------------------14------10-9-10-9-10-9----------|
D|-----------------------------------------------12-10----|
A|--------------------------------------------------------|
E|--------------------------------------------------------|

e|--10-12---------------------------------------------------|
B|-------10--12-13------------------------------------------|
G|-----------------10-12-14/-----------9-10---10-12/13--10--|
D|--------------------------12----10-12-----12--------------|
A|------------------------------12--------------------------|
E|----------------------------------------------------------|

e|-8/10-8------------12-13-13-13-12---------------------12-------|
B|-------12-10--13-15--------------15-13---13-15--15-15---15-13--|
G|---------------------------------------14----------------------|
D|---------------------------------------------------------------|
A|---------------------------------------------------------------|
E|---------------------------------------------------------------|
Tap to rate this tab
# A B C D E F G H I J K L M N O P Q R S T U V W X Y Z