Song name
# A B C D E F G H I J K L M N O P Q R S T U V W X Y Z

Paul Mccartney - Highway tab

Highway
Paul McCartney

hi! this is my first tab. I hope it's great but sorry, I don't have the guitar solo tab...
you can take the rythm with the Paul McCartney's live at New york city.

Intro/verse

e|------------------------------|
B|------------------------------|
G|-----------2-2----------------|   x 12
D|-----2\4----------------------|
A|--2-------------5-------------|
E|------------------------------|

chorus x2

e|------------------------------------------------------------------------|
B|------------------------------------------------------------------------|
G|--4--4-4-4-4-4---7--7-7-7-7-7---9--9-9-9-9-9---11--11-11-11-11-11-------|
D|--4--4-4-4-4-4---7--7-7-7-7-7---9--9-9-9-9-9---11--11-11-11-11-11-------|
A|--2--2-2-2-2-2---5--5-5-5-5-5---7--7-7-7-7-7----9---9--9--9--9--9-------|
E|------------------------------------------------------------------------|

Intro/verse

e|------------------------------|
B|------------------------------|
G|-----------2-2----------------|   x 11
D|-----2\4----------------------|
A|--2-------------5-------------|
E|------------------------------|

chorus x2

e|-------------------------------------------------------------------------|
B|-------------------------------------------------------------------------|
G|--4--4-4-4-4-4---7--7-7-7-7-7---9--9-9-9-9-9---11--11-11-11-11-11--------|
D|--4--4-4-4-4-4---7--7-7-7-7-7---9--9-9-9-9-9---11--11-11-11-11-11--------|
A|--2--2-2-2-2-2---5--5-5-5-5-5---7--7-7-7-7-7----9---9--9--9--9--9--------|
E|-------------------------------------------------------------------------|

interlude

e|-------------------------------------------|
B|-------------------------------------------|
G|-------------------------------------------|
D|--9-9-9-9--7-7-7-7--6-6-6-6--5--4----------| x8
A|--9-9-9-9--7-7-7-7--6-6-6-6--5--4----------|
E|--7-7-7-7--5-5-5-5--4-4-4-4--3--2----------|

chorus x2

e|-------------------------------------------------------------------------|
B|-------------------------------------------------------------------------|
G|--4--4-4-4-4-4---7--7-7-7-7-7---9--9-9-9-9-9---11--11-11-11-11-11--------|
D|--4--4-4-4-4-4---7--7-7-7-7-7---9--9-9-9-9-9---11--11-11-11-11-11--------|
A|--2--2-2-2-2-2---5--5-5-5-5-5---7--7-7-7-7-7----9---9--9--9--9--9--------|
E|-------------------------------------------------------------------------|

Interlude 2 :

e|---------------------------------------|
B|---------------------------------------|
G|--4444-4444--7777-7777--9999-9999------|
D|--4444-4444--7777-7777--9999-9999------| 
A|--2222-2222--5555-5555--7777-7777------|
E|---------------------------------------|




solo

e|---------------------------------------|
B|---------------------------------------|
G|--4444-4444--7777-7777--9999-9999------|
D|--4444-4444--7777-7777--9999-9999------| x2
A|--2222-2222--5555-5555--7777-7777------|
E|---------------------------------------|

chorus x4

e|------------------------------------------------------------------------|
B|------------------------------------------------------------------------|
G|--4--4-4-4-4-4---7--7-7-7-7-7---9--9-9-9-9-9---11--11-11-11-11-11-------|
D|--4--4-4-4-4-4---7--7-7-7-7-7---9--9-9-9-9-9---11--11-11-11-11-11-------| 
A|--2--2-2-2-2-2---5--5-5-5-5-5---7--7-7-7-7-7----9---9--9--9--9--9-------|
E|------------------------------------------------------------------------|


e|-------------------------------------------|
B|-------------------------------------------|
G|-------------------------------------------|
D|--9-9-9-9--7-7-7-7--6-6-6-6--5--4----------| x2
A|--9-9-9-9--7-7-7-7--6-6-6-6--5--4----------|
E|--7-7-7-7--5-5-5-5--4-4-4-4--3--2----------|

e|------------------------------------------------------------------|
B|------------------------------------------------------------------|
G|------------------------------------------------------------------|
D|--9-9-9-9--7-7-7-7--6-6-6-6--5-5-5-5--4-4-4-4--3-3-3-3--232-------| x2
A|--9-9-9-9--7-7-7-7--6-6-6-6--5-5-5-5--4-4-4-4--3-3-3-3--232-------|
E|--7-7-7-7--5-5-5-5--4-4-4-4--3-3-3-3--2-2-2-2--1-1-1-1--010-------|
Tap to rate this tab
# A B C D E F G H I J K L M N O P Q R S T U V W X Y Z