Song name
# A B C D E F G H I J K L M N O P Q R S T U V W X Y Z

Paul Mccartney - Flaming Pie tab

Help us improve GuitareTab! Take a short survey!
----------------------------------------------------------

     PAUL McCARTNEY - FLAMING PIE. From FLAMING PIE album.
                      Released on 12th May 1997.
  
----------------------------------------------------------

     Tabbed by:PJVillanueva





Making love underneath the bed
Shooting stars from a purple sky
I don't care how I do it
I'm the man on the flaming pie

Stick my tongue out and lick my nose
Tuck my shirt in and zip my fly
Go ahead, have a vision
I'm the man on the flaming pie

Everything I do has a simple explanation
When I'm with you, you could do with a vacation
I took my brains out and stretched 'em on a rack
Now I'm not so sure I'm ever gonna get 'em back

Cut my toes off to spite my feet
I don't know whether to laugh or cry
Never mind, check my rhythm
I'm the man on the flaming pie

I'm the man on the flaming pie
Everything I do has a simple explanation
When I'm with you, you could do with a vacation
I took my brains out and stretched on a rack
Now I'm not so sure I'm ever gonna get em back




                                     
  A
e|------- ------- ------- -------|------- ------- ------- -------|
B|5---5---5---5---5---5---5---5--|5---5---5---5---5--------------|
G|5H6-6---6---6---5H6-6---6---6--|5H6-6---6---6---6--------------|
D|7---7---7---7---7---7---7---7--|7---7---7---7---7--------------|
A|-------------------------------|-------------------------------|
E|-------------------------------|-------------------------------|
  A5      A6      A5 ....
e|------- ------- ------- -------|------- ------- ------- -------|
B|-------------------------------|-------------------------------|
G|-------------------------------|-------------------------------|
D|-------------------------------|-------------------------------|
A|7---7---9---9---7---7---9---9--|7---7---9---9---7--------------|
E|5---5---5---5---5---5---5---5--|5---5---5---5---5--------------|



  00:04

e|------- ------- ------- -------|------- ------- ------- -------|
B|5---5---5---5---5---5---5---5--|5---5---5---5---5---5---5---5--|
G|5H6-6---6---6---6---6---6---6--|6---6---6---6---6---6---6---6--|
D|7---7---7---7---7---7---7---7--|7---7---7---7---7---7---7---7--|
A|-------------------------------|-------------------------------|
E|-------------------------------|-------------------------------|
          Making  love    underneath  the     bed
e|------- ------- ------- -------|------- ------- ------- -------|
B|-------------------------------|-------------------------------|
G|-------------------------------|-------------------------------|
D|-------------------------------|-------------------------------|
A|7---7---9---9---7---7---9---9--|7---7---9---9---7---7---9---9--|
E|5---5---5---5---5---5---5---5--|5---5---5---5---5---5---5---5--|





e|------- ------- ------- -------|------- ------- ------- -------|
B|5---5---5---5---5---5---5---5--|5---5---5---5---5---5---5---5--|
G|5H6-6---6---6---6---6---6---6--|6---6---6---6---6---6---6---6--|
D|7---7---7---7---7---7---7---7--|7---7---7---7---7---7---7---7--|
A|-------------------------------|-------------------------------|
E|-------------------------------|-------------------------------|
          Shooting        from a  purple      sky
                  stars
e|------- ------- ------- -------|------- ------- ------- -------|
B|-------------------------------|-------------------------------|
G|-------------------------------|-------------------------------|
D|-------------------------------|-------------------------------|
A|7---7---9---9---7---7---9---9--|7---7---9---9---7---7---9---7--|
E|5---5---5---5---5---5---5---5--|5---5---5---5---5---5---5---5--|




  Gadd9                           D                   C
e|5---5-- 5---5-- 5---5-- 5---5--|------- ------- ------- -------|
B|3---3---3---3---3---3---3---3--|7---7---7---7---7---8----------|
G|4---4---4---4---4---4---4---4--|7---7---7---7---7---5----------|
D|-------------------------------|7---7---7---7---7---5----------|
A|-------------------------------|-------------------------------|
E|-------------------------------|-------------------------------|
          I   don't                       how I   do  it
                  care 
e|------- ------- ------- -------|------- ------- ------- -------|
B|-------------------------------|-------------------------------|
G|-------------------------------|-------------------------------|
D|-------------------------------|7---7---7---7---7---5----------|
A|5---5---5---5---5---5---5---5--|5---5---5---5---5---3----------|
E|3---3---3---3---3---3---3---3--|-------------------------------|
  G5                              D5                  C5



  A
e|------- ------- ------- -------|------- ------- ------- -------|
B|5---5---5---5---5---5---5---5--|5---5---5---5---5---5---5---5--|
G|5H6-6---6---6---6---6---6---6--|6---6---6---6---6---6---6---6--|
D|7---7---7---7---7---7---7---7--|7---7---7---7---7---7---7---7--|
A|-------------------------------|-------------------------------|
E|-------------------------------|-------------------------------|
          I'm the man     on  the flaming     pie
e|------- ------- ------- -------|------- ------- ------- -------|
B|-------------------------------|-------------------------------|
G|-------------------------------|-------------------------------|
D|-------------------------------|-------------------------------|
A|7---7---9---9---7---7---9---9--|7---7---9---9---7---7---9---9--|
E|5---5---5---5---5---5---5---5--|5---5---5---5---5---5---5---5--|

e|------- ------- ------- -------|------- ------- ------- -------|
B|-------------------------------|-------------------------------|
G|-------------------------------|-------------------------------|
D|-------------------------------|-------------------------------|
A|-------------------------------|----------------------------0--|
E|-------------------------------|--------------------0---2------|



  00:22

e|------- ------- ------- -------|------- ------- ------- -------|
B|5---5---5---5---5---5---5---5--|5---5---5---5---5---5---5---5--|
G|5H6-6---6---6---6---6---6---6--|6---6---6---6---6---6---6---6--|
D|7---7---7---7---7---7---7---7--|7---7---7---7---7---7---7---7--|
A|-------------------------------|-------------------------------|
E|-------------------------------|-------------------------------|
          Stick   tongue  out and lick my     nose
              my
e|------- ------- ------- -------|------- ------- ------- -------|
B|-------------------------------|-------------------------------|
G|-------------------------------|-------------------------------|
D|-------------------------------|-------------------------------|
A|7---7---9---9---7---7---9---9--|7---7---9---9---7---7---9---9--|
E|5---5---5---5---5---5---5---5--|5---5---5---5---5---5---5---5--|

e|------- ------- ------- -------|------- ------- ------- -------|
B|-------------------------------|-------------------------------|
G|2-------2-------2-------2---2--|2-----------2---2---2---2---2--|
D|2-------2-------2-------2---2--|2-----------2---2---2---2---2--|
A|0-------0-------0-------0---0--|0-----------0---0---0---0---0--|
E|-------------------------------|-------------------------------|





e|------- ------- ------- -------|------- ------- ------- -------|
B|5---5---5---5---5---5---5---5--|5---5---5---5---5---5---5---5--|
G|5H6-6---6---6---6---6---6---6--|6---6---6---6---6---6---6---6--|
D|7---7---7---7---7---7---7---7--|7---7---7---7---7---7---7---7--|
A|-------------------------------|-------------------------------|
E|-------------------------------|-------------------------------|
          Tuck    shirt   in  and zip my      fly
              my
e|------- ------- ------- -------|------- ------- ------- -------|
B|-------------------------------|-------------------------------|
G|-------------------------------|-------------------------------|
D|-------------------------------|-------------------------------|
A|7---7---9---9---7---7---9---9--|7---7---9---9---7---7---9---7--|
E|5---5---5---5---5---5---5---5--|5---5---5---5---5---5---5---5--|

e|------- ------- ------- -------|------- ------- ------- -------|
B|-------------------------------|-------------------------------|
G|2---2---2---2---2---2---2---2--|2-------2---2---2-------2---2--|
D|2---2---2---2---2---2---2---2--|2-------2---2---2-------2---2--|
A|0---0---0---0---0---0---0---0--|0-------0---0---0-------0---0--|
E|-------------------------------|-------------------------------|         





e|5---5-- 5---5-- 5---5-- 5---5--|------- ------- ------- -------|
B|3---3---3---3---3---3---3---3--|7---7---7---7---7--------------|
G|4---4---4---4---4---4---4---4--|7---7---7---7---7--------------|
D|-------------------------------|7---7---7---7---7--------------|
A|-------------------------------|-------------------------------|
E|-------------------------------|-------------------------------|
          Go  ahead,                      have a  vision
e|------- ------- ------- -------|------- ------- ------- -------|
B|-------------------------------|-------------------------------|
G|-------------------------------|-------------------------------|
D|-------------------------------|7---7---7---7---7---5----------|
A|5---5---5---5---5---5---5---5--|5---5---5---5---5---3----------|
E|3---3---3---3---3---3---3---3--|-------------------------------|

e|------- ------- ------- -------|------- ------- ------- -------|
B|3-------3-------3---3---3---3--|7-------7---7---7---5----------|
G|4-------4-------4---4---4---4--|7-------7---7---7---5----------|
D|5-------5-------5---5---5---5--|7-------7---7---7---5----------|
A|5-------5-------5---5---5---5--|5-------5---5---5---3----------|
E|-------------------------------|-------------------------------|





e|------- ------- ------- -------|------- ------- ------- -------|
B|5---5---5---5---5---5---5---5--|5---5---5---5---5---5---5---5--|           
G|5H6-6---6---6---6---6---6---6--|6---6---6---6---6---6---6---6--|
D|7---7---7---7---7---7---7---7--|7---7---7---7---7---7---7---7--|
A|-------------------------------|-------------------------------|
E|-------------------------------|-------------------------------|
          I'm the man     on  the flaming     pie
e|------- ------- ------- -------|------- ------- ------- -------|
B|-------------------------------|-------------------------------|
G|-------------------------------|-------------------------------|
D|-------------------------------|-------------------------------|
A|7---7---9---9---7-------9---7--|7---7---9---9---7---7---9------|
E|5---5---5---5---5-------5---5--|5---5---5---5---5---5---5------|

e|------- ------- ------- -------|------- ------- ------- -------|
B|-------------------------------|-------------------------------|
G|2---2---2---2---2-------2---2--|2---2---2---2---2---2---2------|
D|2---2---2---2---2-------2---2--|2---2---2---2---2---2---2------|
A|0---0---0---0---0-------0---0--|0---0---0---0---0---0---0------|
E|-------------------------------|-------------------------------|



  00:39
  B
e|------- ------- ------- -------|------- ------- ------- -------|
B|7---7---7---7---7---7---7---7--|7---7---7---7---7---7---7---7--|
G|8---8---8---8---8---8---8---8--|8---8---8---8---8---8---8---8--|
D|9---9---9---9---9---9---9---9--|9---9---9---9---9---9---9---9--|
A|-------------------------------|-------------------------------|
E|-------------------------------|-------------------------------|
  Everything  I   do      has a   simple 
                                        explanation
e|------- ------- ------- -------|------- ------- ------- -------|
B|-------------------------------|-------------------------------|
G|-------------------------------|-------------------------------|
D|-------------------------------|-------------------------------|
A|9---9---9---9---9---9---9---9--|9---9---9---9---9---9---9---9--|
E|7---7---7---7---7---7---7---7--|7---7---7---7---7---7---7---7--|

e|------- ------- ------- -------|------- ------- ------- -------|
B|-------------------------------|-------------------------------|
G|-------------------------------|-------------------------------|
D|9------------------------------|9---9---7---7---6---6---4---4--|
A|-------------------------------|-------------------------------|
E|7------------------------------|7---7---5---5---4---4---2---2--|




  E
e|7---7-- 7---7-- 7---7-- 7---7--|7---7-- 7---7-- 7---7-- 7---7--|
B|9---9---9---9---9---9---9---9--|9---9---9---9---9---9---9---9--|
G|9---9---9---9---9---9---9---9--|9---9---9---9---9---9---9---9--|
D|-------------------------------|-------------------------------|
A|-------------------------------|-------------------------------|
E|-------------------------------|-------------------------------|
      When    with        you could   with    vacation
        I'm       you,            do      a
e|------- ------- ------- -------|------- ------- ------- -------|
B|-------------------------------|-------------------------------|
G|-------------------------------|-------------------------------|
D|-------------------------------|-------------------------------|
A|2---2---2---2---2---2---2---2--|2---2---2---2---2---2---2---2--|
E|0---0---0---0---0---0---0---0--|0---0---0---0---0---0---0---0--|

e|------- ------- ------- -------|------- ------- ------- -------|
B|-------------------------------|-------------------------------|
G|-------------------------------|9---9---7---7---6---6----------|
D|2------------------------------|------------------------9---9--|
A|-------------------------------|7---7---5---5---4---4----------|
E|0------------------------------|------------------------7---7--|               




  A
e|------- ------- ------- -------|------- ------- ------- -------|
B|5---5---5---5---5---5---5---5--|5---5---5---5---5---5---5---5--|           
G|6---6---6---6---6---6---6---6--|6---6---6---6---6---6---6---6--|
D|7---7---7---7---7---7---7---7--|7---7---7---7---7---7---7---7--|
A|-------------------------------|-------------------------------|                     
E|-------------------------------|-------------------------------|
      I   took    brains  out and stretched   a rack      Now I'm
              my                      'em on
e|------- ------- ------- -------|------- ------- ------- -------|
B|-------------------------------|-------------------------------|
G|-------------------------------|-------------------------------|
D|-------------------------------|-------------------------------|
A|7---7---7---7---7---7---7---7--|7---7---7---7---7---7---7---7--|
E|5---5---5---5---5---5---5---5--|5---5---5---5---5---5---5---5--|

e|------- ------- ------- -------|------- ------- ------- -------|
B|-------------------------------|10--10--8---8---7---7----------|
G|-------------------------------|------------------------9---9--|
D|7------------------------------|7---7---5---5---4---4----------|
A|-------------------------------|------------------------7---7--|
E|5------------------------------|-------------------------------|




  D                               E
e|5---5-- 5---5-- 5---5-- 5---5--|7---7-- 7---7-- 7---7-- 7---7--|
B|7---7---7---7---7---7---7---7--|9---9---9---9---9---9---9---9--|
G|7---7---7---7---7---7---7---7--|9---9---9---9---9---9---9---9--|
D|-------------------------------|-------------------------------|          
A|-------------------------------|-------------------------------|
E|-------------------------------|-------------------------------|
  not so  sure    ever    gonna       get'em  back
              I'm 
e|------- ------- ------- -------|------- ------- ------- -------|
B|-------------------------------|-------------------------------|
G|-------------------------------|-------------------------------|
D|7---7---7---7---7---7---7---7--|9---9---9---9---9---9---9---9--|
A|5---5---5---5---5---5---5---5--|7---7---7---7---7---7---7---7--|
E|-------------------------------|-------------------------------|

e|------- ------- ------- -------|------- ------- ------- -------|
B|-------------------------------|-------------------------------|
G|7-------7---7---7-------7---7-/|9-------9---9---9---9---9---9--|
D|-------------------------------|-------------------------------|
A|5-------5---5---5-------5---5-/|7-------7---7---7---7---7---7--|
E|-------------------------------|-------------------------------|



                                                 (.
  D       C       Bm              E       
e|5---5-- 3---3-- 2---2-- 2---2--|4---4-- 4---4-- 4------ -------|
B|7---7---5---5---3---3---3---3--|5---5---5---5---5--------------|              
G|7---7---5---5---4---4---4---4--|4---4---4---4---4--------------|
D|-------------------------------|-------------------------------|
A|-------------------------------|-------------------------------|
E|-------------------------------|-------------------------------|

e|------- ------- ------- -------|------- ------- ------- -------|
B|-------------------------------|-------------------------------|
G|-------------------------------|-------------------------------|
D|7---7---5---5---4---4---2---2--|-------------------------------|
A|5---5---3---3---2---2---0---0--|2---2---2---2---2--------------|
E|-------------------------------|0---0---0---0---0--------------|

e|------- ------- ------- -------|------- ------- ------- -------|
B|-------------------------------|-------------------------------|
G|7---7---5---5---4---4----------|-------------------------------|
D|------------------------7---7--|2---2---2---2---2--------------|
A|5---5---3---3---2---2----------|-------------------------------|
E|------------------------5---5--|0---0---0---0---0--------------|



  01:01
  A5
e|------- ------- ------- -------|------- ------- ------- -------|
B|-------------------------------|-------------------------------|
G|----2-------2-------2-2-----2--|----2-------2-------2-2-----2--|
D|----2-------2-------2-2-----2--|----2-------2-------2-2-----2--|
A|0-------0-------0-------0------|0-------0-------0-------0------|
E|0-------0-------0-------0------|0-------0-------0-------0------|

e|5------ 5---5-- ------- -------|------- 5---5-- ------- -------|
B|--------------5---5H7----------|----5---------5---5H7----------|
G|5H6-----7---7-5H6--P5----------|----5H6-7---7-5H6--P5----------|
D|----------------------7--------|----------------------7--------|
A|-------------------------------|-------------------------------|
E|-------------------------------|-------------------------------|





e|------- ------- ------- -------|------- ------- ------- -------|
B|-------------------------------|-------------------------------|
G|----2-------2-------2-2-----2--|----2-------2-------2-2-----2-2|
D|----2-------2-------2-2-----2--|----2-------2-------2-2-----2-2|
A|0-------0-------0-------0------|0-------0-------0-------0------|
E|0-------0-------0-------0------|0-------0-------0-------0------|

e|------- 5---5-- ------- -------|------- 5---5-- ------- -------|
B|----5---------5---5H7----------|----5---------5---5H7----------|
G|----5H6-7---7-5H6--P5----------|----5H6-7---7-5H6--P5----------|
D|----------------------7--------|----------------------7---7-7--|
A|-------------------------------|--------------------------7-7--|
E|-------------------------------|-------------------------------|         



  01:09

e|------- ------- ------- -------|------- ------- ------- -------|
B|5---5---5---5---5---5---5---5--|5---5---5---5---5---5---5---5--|
G|5H6-6---6---6---6---6---6---6--|6---6---6---6---6---6---6---6--|
D|7---7---7---7---7---7---7---7--|7---7---7---7---7---7---7---7--|
A|-------------------------------|-------------------------------|
E|-------------------------------|-------------------------------|
          Cut my  toes    off to  spite       feet
                                      my
e|------- ------- ------- -------|------- ------- ------- -------|
B|-------------------------------|-------------------------------|
G|-------------------------------|-------------------------------|
D|-------------------------------|-------------------------------|
A|7---7---9---9---7---7---9---9--|7---7---9---9---7---7---9---9--|
E|5---5---5---5---5---5---5---5--|5---5---5---5---5---5---5---5--|





e|------- ------- ------- -------|------- ------- ------- -------|
B|5---5---5---5---5---5---5---5--|5---5---5---5---5---5---5---5--|
G|5H6-6---6---6---6---6---6---6--|6---6---6---6---6---6---6---6--|
D|7---7---7---7---7---7---7---7--|7---7---7---7---7---7---7---7--|
A|-------------------------------|-------------------------------|
E|-------------------------------|-------------------------------|
          I don't know    whether laugh   cry
                                to    or           
e|------- ------- ------- -------|------- ------- ------- -------|
B|-------------------------------|-------------------------------|
G|-------------------------------|-------------------------------|
D|-------------------------------|-------------------------------|
A|7---7---9---9---7---7---9---9--|7---7---9---9---7---7---9---7--|
E|5---5---5---5---5---5---5---5--|5---5---5---5---5---5---5---5--|
         




e|5---5-- 5---5-- 5---5-- 5---5--|------- ------- ------- -------|
B|3---3---3---3---3---3---3---3--|7---7---7---7---7---8-------8--|
G|4---4---4---4---4---4---4---4--|7---7---7---7---7---5-------5--|
D|-------------------------------|7---7---7---7---7---5-------5--|
A|-------------------------------|-------------------------------|
E|-------------------------------|-------------------------------|
          Never   mind,                   check   rhythm
                                              my      
e|------- ------- ------- -------|------- ------- ------- -------|
B|-------------------------------|-------------------------------|
G|-------------------------------|-------------------------------|
D|-------------------------------|7---7---7---7---7---5-------5--|
A|5---5---5---5---5---5---5---5--|5---5---5---5---5---3-------3--|
E|3---3---3---3---3---3---3---3--|-------------------------------|
                                                    (Hit and pull               
e|------- ------- ------- -------|------- ------- ---12H15P12H15..
B|-------------------------------|-------------------------------|
G|-------------------------------|-------------------------------|
D|-------------------------------|-------------------------------|
A|-------------------------------|-------------------------------|
E|-------------------------------|-------------------------------|





e|------- ------- ------- -------|------- ------- ------- -------|
B|----5-------5-------5-------5--|----5-------5-------5-------5--|
G|----6-------6-------6-------6--|----6-------6-------6-------6--|
D|----7-------7-------7-------7--|----7-------7-------7-------7--|
A|-------------------------------|-------------------------------|
E|-------------------------------|-------------------------------|
          I'm the man     on  the flaming     pie
e|------- ------- ------- -------|------- ------- ------- -------|
B|-------------------------------|-------------------------------|
G|-------------------------------|-------------------------------|
D|-------------------------------|-------------------------------|
A|----7-------7-------7-------7--|----7-------7-------7-------7--|
E|----5-------5-------5-------5--|----5-------5-------5-------5--|
  fast with your middle finger [or with the pick])
e................................|................12--15- ---B17-|
B|-------------------------------|-------------------------------|
G|-------------------------------|-------------------------------|
D|-------------------------------|-------------------------------|
A|-------------------------------|-------------------------------|
E|-------------------------------|-------------------------------|





e|------- ------- ------- -------|----5-- ----5-- ----3-- -------|
B|---3--------3-------3-------3--|----7-------7-------5----------|
G|---4--------4-------4-------4--|----7-------7-------5----------|
D|---5--------5-------5-------5--|-------------------------------|
A|-------------------------------|-------------------------------|
E|-------------------------------|-------------------------------|

e|------- ------- ------- -------|------- ------- ------- -------|
B|-------------------------------|-------------------------------|
G|-------------------------------|-------------------------------|
D|-------------------------------|----7-------7-------5----------|
A|----5-------5-------5-------5--|----5-------5-------3----------|
E|----3-------3-------3-------3--|-------------------------------|
       B    R
e|---1517 171512- ------- -------|------- ------- ------- -------|
B|----------------15B17---13-----|-------------------------------|
G|----------------------------14-|-~----------12--14B17-~-----R--|
D|-------------------------------|-------------------------------|
A|-------------------------------|-------------------------------|
E|-------------------------------|-------------------------------|             




e|------- ------- ------- -------|------- ------- ------- -------|
B|5---5---5---5---5---5---5---5--|5---5---5---5---5---5---5---5--|           
G|6---6---6---6---6---6---6---6--|6---6---6---6---6---6---6---6--|
D|7---7---7---7---7---7---7---7--|7---7---7---7---7---7---7---7--|
A|-------------------------------|-------------------------------|
E|-------------------------------|-------------------------------|
          I'm the man     on  the flaming     pie         Now
e|------- ------- ------- -------|------- ------- ------- -------|
B|-------------------------------|-------------------------------|
G|-------------------------------|-------------------------------|
D|-------------------------------|-------------------------------|
A|7---7---9---9---7---7---9---7--|7---7---9---9---7---7---9---9--|
E|5---5---5---5---5---5---5---5--|5---5---5---5---5---5---5---5--|

e|------- ------- ------- -------|------- ------- ------- -------|
B|-------------------------------|-------------------------------|
G|2---2---2---2---2-------2---2--|2-------2---2---2---2-------2--|
D|2---2---2---2---2-------2---2--|2-------2---2---2---2-------2--|
A|0---0---0---0---0-------0---0--|0-------0---0---0---0-------0--|
E|-------------------------------|-------------------------------|



  01:36

e|------- ------- ------- -------|------- ------- ------- -------|         
B|7---7---7---7---7---7---7---7--|7---7---7---7---7---7---7---7--|
G|8---8---8---8---8---8---8---8--|8---8---8---8---8---8---8---8--|
D|9---9---9---9---9---9---9---9--|9---9---9---9---9---9---9---9--|
A|-------------------------------|-------------------------------|
E|-------------------------------|-------------------------------|
  Everything  I   do      has a   simple 
                                        explanation
e|------- ------- ------- -------|------- ------- ------- -------|
B|-------------------------------|-------------------------------|
G|-------------------------------|-------------------------------|
D|-------------------------------|-------------------------------|
A|9---9---9---9---9---9---9---9--|9---9---9---9---9---9---9---9--|
E|7---7---7---7---7---7---7---7--|7---7---7---7---7---7---7---7--|

e|------- ------- ------- -------|------- ------- ------- -------|
B|-------------------------------|-------------------------------|
G|-------------------------------|-------------------------------|
D|9------------------------------|9---9---7---7---6---6---4---4--|
A|-------------------------------|-------------------------------|
E|7------------------------------|7---7---5---5---4---4---2---2--|





e|7---7-- 7---7-- 7---7-- 7---7--|7---7-- 7---7-- 7---7-- 7---7--|
B|9---9---9---9---9---9---9---9--|9---9---9---9---9---9---9---9--|
G|9---9---9---9---9---9---9---9--|9---9---9---9---9---9---9---9--|
D|-------------------------------|-------------------------------|
A|-------------------------------|-------------------------------|
E|-------------------------------|-------------------------------|
      When    with        you could   with    vacation
        I'm       you,            do      a
e|------- ------- ------- -------|------- ------- ------- -------|
B|-------------------------------|-------------------------------|
G|-------------------------------|-------------------------------|
D|-------------------------------|-------------------------------|
A|2---2---2---2---2---2---2---2--|2---2---2---2---2---2---2---2--|
E|0---0---0---0---0---0---0---0--|0---0---0---0---0---0---0---0--|

e|------- ------- ------- -------|------- ------- ------- -------|
B|-------------------------------|-------------------------------|
G|-------------------------------|9---9---7---7---6---6----------|
D|2------------------------------|------------------------9---9--|
A|-------------------------------|7---7---5---5---4---4----------|
E|0------------------------------|------------------------7---7--|               





e|------- ------- ------- -------|------- ------- ------- -------|
B|5---5---5---5---5---5---5---5--|5---5---5---5---5---5---5---5--|           
G|6---6---6---6---6---6---6---6--|6---6---6---6---6---6---6---6--|
D|7---7---7---7---7---7---7---7--|7---7---7---7---7---7---7---7--|
A|-------------------------------|-------------------------------|                     
E|-------------------------------|-------------------------------|
      I   took    brains  out and stretched   a rack      Now I'm
              my                      'em on
e|------- ------- ------- -------|------- ------- ------- -------|
B|-------------------------------|-------------------------------|
G|-------------------------------|-------------------------------|
D|-------------------------------|-------------------------------|
A|7---7---7---7---7---7---7---7--|7---7---7---7---7---7---7---7--|
E|5---5---5---5---5---5---5---5--|5---5---5---5---5---5---5---5--|

e|------- ------- ------- -------|------- ------- ------- -------|
B|-------------------------------|10--10--8---8---7---7----------|
G|-------------------------------|------------------------9---9--|
D|7------------------------------|7---7---5---5---4---4----------|
A|-------------------------------|------------------------7---7--|
E|5------------------------------|-------------------------------|





e|5---5-- 5---5-- 5---5-- 5---5--|7---7-- 7---7-- 7---7-- 7---7--|
B|7---7---7---7---7---7---7---7--|9---9---9---9---9---9---9---9--|
G|7---7---7---7---7---7---7---7--|9---9---9---9---9---9---9---9--|
D|-------------------------------|-------------------------------|          
A|-------------------------------|-------------------------------|
E|-------------------------------|-------------------------------|
  not so  sure    ever    gonna       get'em  back
              I'm 
e|------- ------- ------- -------|------- ------- ------- -------|
B|-------------------------------|-------------------------------|
G|-------------------------------|-------------------------------|
D|7---7---7---7---7---7---7---7--|9---9---9---9---9---9---9---9--|
A|5---5---5---5---5---5---5---5--|7---7---7---7---7---7---7---7--|
E|-------------------------------|-------------------------------|

e|------- ------- ------- -------|------- ------- ------- -------|
B|-------------------------------|-------------------------------|
G|7-------7---7---7-------7---7-/|9-------9---9---9---9---9------|
D|-------------------------------|-------------------------------|
A|5-------5---5---5-------5---5-/|7-------7---7---7---7---7------|
E|-------------------------------|-------------------------------|



                                                 (.

e|5---5-- 3---3-- 2---2-- 2---2--|4---4-- 4---4-- 4------ -------|
B|7---7---5---5---3---3---3---3--|5---5---5---5---5--------------|              
G|7---7---5---5---4---4---4---4--|4---4---4---4---4--------------|
D|-------------------------------|-------------------------------|
A|-------------------------------|-------------------------------|
E|-------------------------------|-------------------------------|
                                                          Ooowwww!
e|------- ------- ------- -------|------- ------- ------- -------|
B|-------------------------------|-------------------------------|
G|-------------------------------|-------------------------------|
D|7---7---5---5---4---4---2---2--|-------------------------------|
A|5---5---3---3---2---2---0---0--|2---2---2---2---2--------------|
E|-------------------------------|0---0---0---0---0--------------|

e|------- ------- ------- -------|------- ------- ------- -------|
B|-------------------------------|-------------------------------|
G|7---7---5---5---4---4----------|-------------------------------|
D|------------------------7---7--|2---2---2---2---2--------------|
A|5---5---3---3---2---2----------|2---2---2---2---2--------------|
E|------------------------5---5--|0---0---0---0---0--------------|



  01:57

e|------- ------- ------- -------|------- ------- ------- -------|
B|-------------------------------|-------------------------------|
G|----2-------2-------2-2-----2--|----2-------2-------2-2-----2--|
D|----2-------2-------2-2-----2--|----2-------2-------2-2-----2--|
A|0-------0-------0-------0------|0-------0-------0-------0------|
E|0-------0-------0-------0------|0-------0-------1-------1------|
                                                              Yeah!
e|------- 5---5-- ------- -------|------- 5---5-- ------- -------|
B|----5---------5---5H7----------|----5---------5---5H7----------|
G|----5H6-7---7-5H6--P5----------|----5H6-7---7-5H6--P5----------|
D|----------------------7--------|----------------------7--------|
A|-------------------------------|-------------------------------|
E|-------------------------------|-------------------------------|





e|------- ------- ------- -------|------- ------- ------- -------|
B|-------------------------------|-------------------------------|
G|----2-------2-------2-2-----2--|----2-------2-------2-2-----2--|
D|----2-------2-------2-2-----2--|----2-------2-------2-2-----2--|
A|0-------0-------0-------0------|0-------0-------0-------0------|
E|0-------0-------0-------1------|0-------0-------0-------1------|
                                                              Aha!
e|------- 5---5-- ------- -------|------- 5---5-- ------- -------|
B|----5---------5---5H7----------|----5---------5---5H7----------|
G|----5H6-7---7-5H6--P5----------|----5H6-7---7-5H6--P5----------|
D|----------------------7--------|----------------------7---7-7--|
A|-------------------------------|--------------------------7-7--|
E|-------------------------------|-------------------------------|      
      
e|------- ------- ------- -------|------- ------- ------- -------|
B|-------------------------------|-------------------------------|
G|-------------------------------|-------------------------------|
D|-------------------------------|-------------------------------|
A|-------------------------------|----------------------------5-/|
E|-------------------------------|----------------------------3-/|



  X       x       X       x       X       x       X       x

e|------- ------- ------- -------|------- ------- ------- -------|
B|-------------------------------|-------------------------------|
G|----2-------2-------2-2-----2--|----2-------2-------2-2-----2--|
D|----2-------2-------2-2-----2--|----2-------2-------2-2-----2--|
A|0-------0-------0-------0------|0-------0-------0-------0------|
E|0-------0-------0-------1------|0-------0-------0-------1------|

e|5------ 5---5-- ------- -------|------- 5---5-- ------- -------|
B|--------------5---5H7----------|----5---------5---5H7----------|
G|5H6-----7---7-5H6--P5----------|----5H6-7---7-5H6--P5----------|
D|----------------------7--------|----------------------7--------|
A|-------------------------------|-------------------------------|
E|-------------------------------|-------------------------------|

e|------- ------- ------- -------|------- ------- ------- -------|
B|-------------------------------|-------------------------------|
G|-------------------------------|-------------------------------|
D|-------------------------------|-------------------------------|
A|7------------------------------|----------------------------5-/|
E|5------------------------------|----------------------------3-/|

e|------- ------- ------- -------|------- ------- ------- -------|
B|-------------------------------|-------------------------------|
G|2-------2-------2-------2------|2-------2-------2-------2------|
D|2-------2-------2-------2------|2-------2-------2-------2------|
A|0-------0-------0-------0------|0-------0-------0-------0------|
E|-------------------------------|-------------------------------|



  02:11
  X   x   X   x   X   xx  X   x   X   x   X   x   X   x   X   x
  (Double speed)
e|------- ------- ------- -------|------- ------- ------- -------|
B|-------------------------------|-------------------------------|
G|----2---2---2-------2-2-----2--|----2---2-------2---2-2-----2--|
D|----2---2---2-------2-2-----2--|----2---2-------2---2-2-----2--|
A|0-------0-------0-------0------|0-------0-------0-------0------|
E|0-------0-------0-------0------|0-------0-------0-------0------|

e|------- 5---5-- ------- -------|------- 5---5-- ------- -------|
B|----5---------5---5H7----------|----5---------5---5H7----------|
G|----5H6-7---7-5H6--P5----------|----5H6-7---7-5H6--P5----------|
D|----------------------7--------|----------------------7---7-7--|
A|-------------------------------|--------------------------7-7--|
E|-------------------------------|-------------------------------|

e|------- ------- ------- -------|------- ------- ------- -------|
B|-------------------------------|-------------------------------|
G|-------------------------------|-------------------------------|
D|-------------------------------|-------------------------------|
A|7------------------------------|----------------------------5-/|
E|5------------------------------|----------------------------3-/|

e|------- ------- ------- -------|------- ------- ------- -------|
B|-------------------------------|-------------------------------|
G|2-------2-------2-------2------|2-------2-------2-------2------|
D|2-------2-------2-------2------|2-------2-------2-------2------|
A|0-------0-------0-------0------|0-------0-------0-------0------|
E|-------------------------------|-------------------------------|





e|------- ------- ------- -------|------- ------- ------- -------|
B|-------------------------------|-------------------------------|
G|----2---2---2-------2-2-----2-2|----2---2---2-------2-2-----2--|
D|----2---2---2-------2-2-----2-2|----2---2---2-------2-2-----2--|
A|0-------0-------0-------0------|0-------0-------0-------0------|
E|0-------0-------0-------0------|0-------0-------0-------0------|

e|------- 5---5-- ------- -------|------- 5---5-- ------- -------|
B|----5---------5---5H7----------|----5---------5---5H7----------|
G|----5H6-7---7-5H6--P5----------|----5H6-7---7-5H6--P5----------|
D|----------------------7--------|----------------------7---7-7--|
A|-------------------------------|--------------------------7-7--|
E|-------------------------------|-------------------------------|

e|------- ------- ------- -------|------- ------- ------- -------|
B|-------------------------------|-------------------------------|
G|-------------------------------|-------------------------------|
D|-------------------------------|-------------------------------|
A|7------------------------------|----------------------------5-/|
E|5------------------------------|----------------------------3-/|

e|------- ------- ------- -------|------- ------- ------- -------|
B|-------------------------------|-------------------------------|
G|2-------2-------2-------2------|2-------2-------2-------2------|
D|2-------2-------2-------2------|2-------2-------2-------2------|
A|0-------0-------0-------0------|0-------0-------0-------0------|
E|-------------------------------|-------------------------------|

  .............................Fade..............................



e|------- ------- ------- -------|------- ------- ------- -------|
B|-------------------------------|-------------------------------|
G|----2---2---2---2---2-2-----2--|----2---2---2-----2---2-----2-2|
D|----2---2---2---2---2-2-----2--|----2---2---2-----2---2-----2-2|
A|0-------0-------0-------0------|0-------0-------0-------0------|
E|0-------0-------0-------0------|0-------0-------0-------0------|
                              Yeah!           Aha!
e|------- 5---5-- ------- -------|------- 5---5-- ------- -------|
B|----5---------5---5H7----------|----5---------5---5H7----------|
G|----5H6-7---7-5H6--P5----------|----5H6-7---7-5H6--P5----------|
D|----------------------7--------|----------------------7---7-7--|
A|-------------------------------|--------------------------7-7--|
E|-------------------------------|-------------------------------|

e|------- ------- ------- -------|------- ------- ------- -------|
B|-------------------------------|-------------------------------|
G|-------------------------------|-------------------------------|
D|-------------------------------|-------------------------------|
A|7-----------------------7-\----|----------------------------5-/|
E|5-----------------------5-\----|----------------------------3-/|

e|------- ------- ------- -------|------- ------- ------- -------|
B|-------------------------------|-------------------------------|
G|2-------2-------2-------2------|2-------2-------2-------2------|
D|2-------2-------2-------2------|2-------2-------2-------2------|
A|0-------0-------0-------0------|0-------0-------0-------0------|
E|-------------------------------|-------------------------------|

  ...............................................................







        B  Bend
        R  Release
        /  Slide up
        \  Slide down
        H  Hammer-on
        P  Pull-off
        ~  Vibrato
        +  Harmonic
        x  Mute note
        .  Play note like a dot in standard notation
        ^  Ties two notes together
        (. Pause



Related for Flaming Pie tab