Song name
# A B C D E F G H I J K L M N O P Q R S T U V W X Y Z

Paul Mccartney - She Said Yeah tab

  -----------------------------------------------------------

  PAUL McCARTNEY - SHE SAID YEAH (L Williams) From RUN DEVIL 
                   RUN album. Released on October 5th, 1999.

  -----------------------------------------------------------

  Tabbed by:PJVillanueva





  Dum diddle dee dum dum
  Little girl where did you come from
  You fine little thing, you make my heart sing
  Come on, baby, let me buy the wedding ring

  Baby, you drive me crazy
  Got my poor heart hazy
  You got my senses reeling, ooh baby what a feeling
  Come on, baby, let me make love to you

    
  She said yeah
  She said yeah
  She said yeah yeah yeah
  Come on baby, I wanna make love to you too

  Ooh I got the feeling in my soul
  You know I love no one above 
  Come on baby, just let me love you, yeah

  She said yeah
  She said yeah
  She said yeah yeah yeah
  Come on baby, I'm wanna make love to you too

             SOLO

  Well you got me crazy
  My love you've been saving
  You see what miss, I wanna kiss
  Come on baby, don't treat me like this

  She said yeah
  She said yeah
  She said yeah yeah yeah
  Come on baby, I wanna make love to you too, yeah

  She said yeah
  She said yeah yeah yeah 
  Come on baby, I wanna make love to you too yeah yeah
  Come on baby, I wanna make love to you too



                            

  e|------- ------- ------- -------|------- ------- ------- -------|
  B|-------------------------------|-------------------------------|
  G|-------------------------------|-------------------------------|
  D|-------------------------------|----------------------------1--|
  A|-------------------------------|--------------------2---4------|
  E|-------------------------------|-------------------------------|



    E
  e|7------ 7------ ----7-- 7------|7------ 7---7-- ----7-- 7------|
  B|9-------9-----------9---9------|9-------9---9-------9---9------|
  G|9-------9-----------9---9------|9-------9---9-------9---9------|
  D|9-------9-----------9---9------|9-------9---9-------9---9------|
  A|7-------7-----------7---7------|7-------7---7-------7---7------|
  E|-------------------------------|-------------------------------|
            Dum             deedle  dee dum     dum
  e|------- ------- ------- -------|------- ------- ------- -------|
  B|-------------------------------|-------------------------------|
  G|-------------------------------|-------------------------------|
  D|2-------2---------------4---2--|5---4-------2------------------|
  A|--------2----------------------|------------------------0---1--|
  E|--------0----------------------|--------------------4----------|



    B
  e|7------ 7------ ----7-- 7------|7------ ----7-- ----7-- 7------|
  B|7-------7-----------7---7------|7-----------7-------7---7------|
  G|8-------8-----------8---8------|8-----------8-------8---8------|
  D|9-------9-----------9---9------|9-----------9-------9---9------|
  A|9-------9-----------9---9------|9-----------9-------9---9------|
  E|7-------7-----------7---7------|7-----------7-------7---7------|
            Little  girl,   where   you come    from
                                did
  e|------- ------- ------- -------|------- ------- ------- -------|
  B|-------------------------------|-------------------------------|
  G|-------------------------------|-------------------------------|
  D|-------------------------------|-------------------------------|
  A|2-------2---------------4---2--|5---4-------2------------------|
  E|-------------------------------|-------------------------------|



    E                               A
  e|7------ 7------ 0------ 0------|5------ 5---5-- ----5-- 5------|
  B|9-------9-------0-------0------|5-------5---5-------5---5------|
  G|9-------9-------1-------1------|6-------6---6-------6---6------|
  D|9-------9-------2-------2------|7-------7---7-------7---7------|
  A|7-------7-------2-------2------|7-------7---7-------7---7------|
  E|----------------0-------0------|5-------5---5-------5---5------|
        You fine    little  thing,      you make    my  heart 
                                                            sing
  e|------- ------- ------- -------|------- ------- ------- -------|
  B|-------------------------------|-------------------------------|
  G|-------------------------------|2-------2---2-----------2------|
  D|2---------------2-------0------|2-------2---2-----------2------|
  A|2---------------2-------2------|0-------0---0-----------0------|
  E|0---------------4-------4------|-------------------------------|



    E
  e|0------ ------- ------- -------|------- ------- ------- -------|
  B|0------------------------------|-------------------------------|
  G|1------------------------------|-------------------------------|
  D|2------------------------------|-------------------------------|
  A|2------------------------------|-------------------------------|
  E|0------------------------------|-------------------------------|
    Come        baby,       let     buy the wedding ring
        on                      me    
  e|------- ------- ------- -------|------- ------- ------- -------|
  B|-------------------------------|-------------------------------|
  G|-------------------------------|-------------------------------|
  D|2------------------------------|----------------------------1--|
  A|2------------------------------|--------------------2---4------|
  E|0------------------------------|-------------------------------|



    00:11

  e/7---7-- 7------ ----7-- 7------|7------ 7---7-- ----7-- 7---7--|
  B/9---9---9-----------9---9------|9-------9---9-------9---9---9--|
  G/9---9---9-----------9---9------|9-------9---9-------9---9---9--|
  D/9---9---9-----------9---9------|9-------9---9-------9---9---9--|
  A/7---7---7-----------7---7------|7-------7---7-------7---7---7--|
  E|-------------------------------|-------------------------------|
            Baby                you drive   me  crazy
  e|------- ------- ------- -------|------- ------- ------- -------|
  B|-------------------------------|-------------------------------|
  G|-------------------------------|-------------------------------|
  D|1-H-2---2---2---1-H-2---2---2--|1-H-2---2---2-------2---2---2--|
  A|-------------------------------|-------------------------------|
  E|-------------------------------|-------------------------------|




  e|7---7-- 7---7-- 7------ 7---7--|7---7-- 7---7-- ----7-- 7------|
  B|7---7---7---7---7-------7---7--|7---7---7---7-------7---7------|
  G|8---8---8---8---8-------8---8--|8---8---8---8-------8---8------|
  D|9---9---9---9---9-------9---9--|9---9---9---9-------9---9------|
  A|9---9---9---9---9-------9---9--|9---9---9---9-------9---9------|
  E|7---7---7---7---7-------7---7--|7---7---7---7-------7---7------|
            Got             my      poor        hazy
                                        heart
  e|------- ------- ------- -------|------- ------- ------- -------|
  B|-------------------------------|-------------------------------|
  G|-------------------------------|-------------------------------|
  D|-------------------------------|-------------------------------|
  A|1-H-2---2---2---1-H-2---2---2--|1-H-2---2---2-------2---2------|
  E|-------------------------------|-------------------------------|




  e|7------ 7------ 0------ 0------|5------ 5---5-- ------- 5------|
  B|9-------9-------0-------0------|5-------5---5-----------5------|
  G|9-------9-------1-------1------|6-------6---6-----------6------|
  D|9-------9-------2-------2------|7-------7---7-----------7------|
  A|7-------7-------2-------2------|7-------7---7-----------7------|
  E|----------------0-------0------|5-------5---5-----------5------|
        You got my  senses  reeling,    ooh baby    what a  feeling
  e|------- ------- ------- -------|------- ------- ------- -------|
  B|-------------------------------|-------------------------------|
  G|-------------------------------|2-------2---2-----------2------|
  D|2---------------2-------2------|2-------2---2-----------2------|
  A|2---------------2-------2------|0-------0---0-----------0------|
  E|0---------------4-------4------|-------------------------------|




  e|0------ ------- ------- -------|------- ------- ------- -------|
  B|0------------------------------|-------------------------------|
  G|1------------------------------|-------------------------------|
  D|2------------------------------|-------------------------------|
  A|2------------------------------|-------------------------------|
  E|0------------------------------|-------------------------------|
    Come        baby,       let me  make    to  you.    She said
        on,                             love
  e|------- ------- ------- -------|------- ------- ------- -------|
  B|-------------------------------|-------------------------------|
  G|-------------------------------|-------------------------------|
  D|2------------------------------|----------------------------1--|
  A|2------------------------------|--------------------2---4------|
  E|0------------------------------|-------------------------------|



    00:21
    E
  e|7------ 7------ ----7-- 7------|7------ ----7-- ----7-- 7------|
  B|9-------9-----------9---9------|9-----------9-------9---9------|
  G|9-------9-----------9---9------|9-----------9-------9---9------|
  D|9-------9-----------9---9------|9-----------9-------9---9------|
  A|7-------7-----------7---7------|7-----------7-------7---7------|
  E|-------------------------------|-------------------------------|
    Yeah                                                She said
  e|------- ------- ------- -------|------- ------- ------- -------|
  B|-------------------------------|-------------------------------|
  G|-------------------------------|-------------------------------|
  D|2-------2---------------4---2--|5---4-------2-------2---2------|
  A|-------------------------------|-------------------------------|
  E|-------------------------------|-------------------------------|



    B
  e|7------ 7------ ----7-- 7------|7------ ----7-- ----7-- 7------|
  B|7-------7-----------7---7------|7-----------7-------7---7------|
  G|8-------8-----------8---8------|8-----------8-------8---8------|
  D|9-------9-----------9---9------|9-----------9-------9---9------|
  A|9-------9-----------9---9------|9-----------9-------9---9------|
  E|7-------7-----------7---7------|7-----------7-------7---7------|
    Yeah                                                She said
  e|------- ------- ------- -------|------- ------- ------- -------|
  B|-------------------------------|-------------------------------|
  G|-------------------------------|-------------------------------|
  D|-------------------------------|-------------------------------|
  A|--------2-~-------------4---2--|5---4-------2------------------|
  E|-------------------------------|-------------------------------|   



    E                               A
  e|7------ 7------ ------- 0------|5------ 5---5-- ----5-- 5------|
  B|9-------9---------------0------|5-------5---5-------5---5------|
  G|9-------9---------------1------|6-------6---6-------6---6------|
  D|9-------9---------------2------|7-------7---7-------7---7------|
  A|7-------7---------------2------|7-------7---7-------7---7------|
  E|------------------------0------|5-------5---5-------5---5------|
    Yeah            yeah            yeah
  e|------- ------- ------- -------|------- ------- ------- -------|
  B|-------------------------------|-------------------------------|
  G|-------------------------------|--------2---2--------2--2------|
  D|--------2---------------0------|--------2---2--------2--2------|
  A|--------2---------------2------|--------0---0--------0--0------|
  E|--------0---------------4------|-------------------------------|



    F#7                             B7
  e|2------ 2---2-- ----2-- 2------|7------ 7------ 7------ 7------|
  B|5-------5---5-------5---5------10------10------10------10------|
  G|3-------3---3-------3---3------|8-------8-------8-------8------|
  D|2-------2---2-------2---2------|x-------x-------x-------x------|
  A|4-------4---4-------4---4------|9-------9-------9-------9------|
  E|2-------2---2-------2---2------|7-------7-------7-------7------|
    Come        baby,           I   wanna   make    love    you 
        on,                                             to
  e|------- ------- ------- -------|------- ------- ------- -------|
  B|-------------------------------|-------------------------------|
  G|-------------------------------|4-------4-------4-------4------|
  D|4-----------4-------4---4------|4-------4-------4-------4------|
  A|4-----------4-------4---4------|2-------2-------2-------2------|
  E|2-----------2-------2---2------|-------------------------------|


                               (.
            E       D   B
  e|------- 7------ 5---7-- ----7--|------- ------- ------- -------|
  B|--------9-------7---7-------7--|-------------------------------|
  G|--------9-------7---8-------8--|-------------------------------|
  D|--------9-------7---9-------9--|-------------------------------|
  A|--------7-------5---9-------9--|-------------------------------|
  E|--------------------7-------7--|-------------------------------|
    too                                     Ooh I   got     the feeling
  e|------- ------- ------- -------|------- ------- ------- -------|
  B|-------------------------------|-------------------------------|
  G|--------9-------7--------------|-------------------------------|
  D|2-------9-------7---9-------9--|-------------------------------|
  A|2-------7-------5---9-------9--|-------------------------------|
  E|0-------------------7-------7--|-------------------------------|    



    00:34

  e|7------ 7------ 7---7-- 7---7--|7------ 7---7-- ----7-- 7------|
  B|9-------9-------9---9---9---9--|9-------9---9-------9---9------|
  G|9-------9-------9---9---9---9--|9-------9---9-------9---9------|
  D|9-------9-------9---9---9---9--|9-------9---9-------9---9------|
  A|7-------7-------7---7---7---7--|7-------7---7-------7---7------|
  E|-------------------------------|-------------------------------|
                                                    in  my      soul
  e|------- ------- ------- -------|------- ------- ------- -------|
  B|-------------------------------|-------------------------------|
  G|-------------------------------|-------------------------------|
  D|--------2-------1-H-2---2---2--|1-H-2---2---2-------2---2------|
  A|-------------------------------|-------------------------------|
  E|-------------------------------|-------------------------------|




  e|7------ 7------ ----7-- 7------|7------ ----7-- ----7-- 7------|    
  B|7-------7-----------7---7------|7-----------7-------7---7------|
  G|8-------8-----------8---8------|8-----------8-------8---8------|
  D|9-------9-----------9---9------|9-----------9-------9---9------|
  A|9-------9-----------9---9------|9-----------9-------9---9------|
  E|7-------7-----------7---7------|7-----------7-------7---7------|
                                                        you   I love
                                                            know 
  e|------- ------- ------- -------|------- ------- ------- -------|
  B|-------------------------------|-------------------------------|
  G|-------------------------------|-------------------------------|
  D|4---4---4---4---4---4---4---4--|4---4---4---4-------4---4------|
  A|1-H-2---2---2---2---2---2---2--|1-H-2---2---2-------2---2------|
  E|-------------------------------|-------------------------------|




  e|7------ 7------ 0------ 0------|5------ 5---5-- ----5-- 5------|
  B|9-------9-------0-------0------|5-------5---5-------5---5------|
  G|9-------9-------1-------1------|6-------6---6-------6---6------|
  D|9-------9-------2-------2------|7-------7---7-------7---7------|
  A|7-------7-------2-------2------|7-------7---7-------7---7------|
  E|----------------0-------0------|5-------5---5-------5---5------|
                        no  one above
  e|------- ------- ------- -------|------- ------- ------- -------|
  B|-------------------------------|-------------------------------|
  G|-------------------------------|2-------2---2-------2---2------|
  D|2-------2-------0-----------0--|2-------2---2-------2---2------|
  A|2-------2-------2-----------2--|0-------0---0-------0---0------|
  E|0-------0-------4-----------4--|-------------------------------|




  e|0------ ------- ------- -------|------- ------- ------- -------|
  B|0------------------------------|-------------------------------|
  G|1------------------------------|-------------------------------|
  D|2------------------------------|-------------------------------|
  A|2------------------------------|-------------------------------|
  E|0------------------------------|-------------------------------|
    Come        baby,       just    let     me      love    you, 
        on,                                                 
  e|------- ------- ------- -------|------- ------- ------- -------|
  B|-------------------------------|-------------------------------|
  G|-------------------------------|-------------------------------|
  D|2------------------------------|----------------------------1--|
  A|2------------------------------|--------------------2---4------|
  E|0------------------------------|-------------------------------|    




  e|7------ 7------ ------- 0------|0------ ----7-- ------- -------|
  B|9-------9---------------0------|0-----------9------------------|
  G|9-------9---------------1------|1-----------9------------------|
  D|9-------9---------------2------|2-----------9------------------|
  A|7-------7---------------2------|2-----------7------------------|
  E|------------------------0------|0------------------------------|
    Yeah                                                She said
  e|------- ------- ------- -------|------- ------- ------- -------|
  B|-------------------------------|-------------------------------|
  G|-------------------------------|-------------------------------|
  D|2-------2---------------4---2--|5---4-------2------------------|
  A|-------------------------------|-------------------------------|
  E|-------------------------------|-------------------------------|



            B7
  e|------- 7------ ------- 7------|7---7-- ----7-- 7---7-- 7------|
  B|--------7---------------7------|7---7-------7---7---7---7------|
  G|--------8---------------8------|8---8-------8---8---8---8------|
  D|--------9---------------9------|9---9-------9---9---9---9------|
  A|--------9---------------9------|9---9-------9---9---9---9------|
  E|--------7---------------7------|7---7-------7---7---7---7------|
    Yeah                                                She said
  e|------- ------- ------- -------|------- ------- ------- -------|
  B|-------------------------------|-------------------------------|
  G|-------------------------------|-------------------------------|
  D|-------------------------------|-------------------------------|
  A|--------2---------------4---2--|5---4-------2-----------2------|
  E|-------------------------------|-------------------------------|   



    E                               A
  e|7------ 7------ ------- 0------|5------ 5---5-- ----5-- 5------|
  B|9-------9---------------0------|5-------5---5-------5---5------|
  G|9-------9---------------1------|6-------6---6-------6---6------|
  D|9-------9---------------2------|7-------7---7-------7---7------|
  A|7-------7---------------2------|7-------7---7-------7---7------|
  E|------------------------0------|5-------5---5-------5---5------|
    Yeah            yeah            yeah
  e|------- ------- ------- -------|------- ------- ------- -------|
  B|-------------------------------|-------------------------------|
  G|-------------------------------|--------2---2-----------2------|
  D|--------2---------------0------|--------2---2-----------2---4--|
  A|--------2---------------2------|--------0---0-----------0---4--|
  E|--------0---------------4------|----------------------------0-H|



    F#7                             B7
  e|2------ 2---2-- ----2-- 2------|7------ 7------ 7------ 7------|
  B|5-------5---5-------5---5------10------10------10------10------|  
  G|3-------3---3-------3---3------|8-------8-------8-------8------|
  D|2-------2---2-------2---2------|x-------x-------x-------x------|
  A|4-------4---4-------4---4------|9-------9-------9-------9------|
  E|2-------2---2-------2---2------|7-------7-------7-------7------|
    Come        baby,           I   wanna   make    love    you 
        on,                                             to
  e|------- ------- ------- -------|------- ------- ------- -------|
  B|-------------------------------|-------------------------------|
  G|-------------------------------|4-------4-------4-------4------|
  D|--------4---4-----------4------|4-------4-------4-------4------|
  A|--------4---4-----------4------|2-------2-------2-------2------|
  E|2-------2---2-----------2------|-------------------------------|


                               (.
            E       D   B
  e|------- 7------ 5---7-- ----7--|------- ------- ------- -------|
  B|--------9-------7---7-------7--|-------------------------------|
  G|--------9-------7---8-------8--|-------------------------------|
  D|--------9-------7---9-------9--|-------------------------------|
  A|--------7-------5---9-------9--|-------------------------------|
  E|--------------------7-------7--|-------------------------------|
    too                                
  e|------- ------- ------- -------|------- ------- ------- -------|
  B|-------------------------------|-------------------------------|
  G|--------9-------7--------------|-------------------------------|
  D|2-------9-------7---9-------9--|-------------------------------|
  A|2-------7-------5---9-------9--|-------------------------------|
  E|0-------------------7-------7--|-------------------------------|


    SOLO
    00:58

  e|------- ------- ------- -------|------- ------- ------- -------|
  B|-------------------------------|-------------------------------|
  G|-------------------------------|-------------------------------|
  D|-------------------------------|-------------------------------|
  A|7-~--------7-~----------7-~----|----7-~---------7-\------------|
  E|-------------------------------|------------------------4---5--|



  e|------- ------- ------- -------|------- ------- ------- -------|
  B|-------------------------------|-------------------------------|
  G|-------------------------------|-------------------------------|
  D|-------------------------------|--------------------5---7-/-9--|
  A|--------5---6---7---6---5------|5-------5----------------------|
  E|6---7-----------------------7--|----7-------7---5--------------|



  e|------- ------- ------- -------|------- ------- ------- -------|
  B|-------------------------------|-------------------------------|
  G|7-----------7------------------|-------------------------------|
  D|----9-----------9-\-7---5------|7---5B6-------------5----------|
  A|----------------------------7--|----------------7-------5---5--|
  E|-------------------------------|-------------------------------|



  e|------- ------- ------- -------|------- ------- ------- -------|
  B|-------------------------------|-------------------------------|
  G|-------------------------------|-------------------------------|
  D|9B11----9B11--R-9-~-----7------|-------------------------------|
  A|----------------------------9--|7------------------------------|
  E|-------------------------------|----9---8---7-~----------------|

  e|------- ------- ------- -------|------- ------- ------- -------|
  B|-------------------------------|-------------------------------|
  G|-------------------------------|----------------9---9---9---9--|
  D|-------------------------------|----11-------------------------|
  A|-------------------------------|-------------------------------|
  E|-------------------------------|-------------------------------|

    
    01:08

  e|------- ------- ------- -------|------- ------- ------- -------|
  B|9---9---9---9---9---9---9---9--|9---9---9---9------10---101010-|
  G|7---7---7---7---7---7---7---7--|7---7---7---7-------8----8-8-8-|
  D|9---9---9---9---9---9---9---9--|9---9---9---9-------9----9-9-9-|
  A|-------------------------------|-------------------------------|
  E|-------------------------------|-------------------------------|



  e|------- ------- ------- -------|------- ------- ------- -------|
  B10--10--10--10--10--10--10--10--10--10--10--10------------------|
  G|8---8---8---8---8---8---8---8--|8---8---8---8------------------|
  D|9---9---9---9---9---9---9---9--|9---9---9---9-------9---11--9--|
  A|-------------------------------|-------------------------------|
  E|-------------------------------|-------------------------------|



  e|------- ------- ------- -------|------- ------- ------- -------|
  B|-------------------------------|-------------------------------|
  G|9---9---7---6-------6----------|6-------6---6-------6---6------|
  D|----------------9--------------|7-------7---7-------7---7------|
  A|------------------------10--9--|7-------7---7-------7---7------|
  E|-------------------------------|----9--------------------------|



  e|------- ------- ------- -------|------- ------- ------- -------|
  B|-------------------------------|-------------------------------|
  G|6---6---6---6-------6----------|-------------------------------|
  D|8---8---8---8-------8----------|9---11-------------------------|
  A|7---7---7---7-------7----------|--------10--9---7-------7---7--|
  E|------------------------9------|--------------------9----------|



  e|------- ------- ------- -------|------- ------- ------- -------|
  B|-------------------------------|-------------------------------|
  G|-------------------------------|-------------------------------|
  D|-------------------------------|-------------------------------|
  A|7------------------------------|-------------------------------|
  E|-------------------------------|-------------------------------|
                               (.
  e|------- 7------ 5---7-- ----7--|------- ------- ------- -------|
  B|--------9-------7---7-------7--|-------------------------------|
  G|--------9-------7---8-------8--|-------------------------------|
  D|--------9-------7---9-------9--|-------------------------------|
  A|--------7-------5---9-------9--|-------------------------------|
  E|--------------------7-------7--|-------------------------------|
                                        Well    you got     me  crazy
  e|------- ------- ------- -------|------- ------- ------- -------|
  B|-------------------------------|-------------------------------|
  G|--------9-------7--------------|-------------------------------|
  D|2-------9-------7---9-------9--|-------------------------------|
  A|2-------7-------5---9-------9--|-------------------------------|
  E|0-------------------7-------7--|-------------------------------| 



    01:22

    My love you've been saving
    You see what miss, I wanna kiss
    Come on baby, don't treat me like this

    She said yeah
    She said yeah
    She said yeah yeah yeah
    Come on baby, I wanna make love to you
 
    01:43
    too, yeah
    She said yeah
    She said yeah yeah yeah 
    Come on baby, I wanna make love to you too yeah yeah
    Come on baby, I wanna make love to you too






        B  Bend
        R  Release
        /  Slide up
        \  Slide down
        H  Hammer-on
        P  Pull-off
        ~  Vibrato
        +  Harmonic
        x  Mute note
        .  Play note like a dot in standard notation
        ^  Ties two notes together
        (. Pause



Tap to rate this tab
# A B C D E F G H I J K L M N O P Q R S T U V W X Y Z