Song name
# A B C D E F G H I J K L M N O P Q R S T U V W X Y Z

Paul Mccartney - Jet tab

This is my first time tabbing a full song, i thought no one really knows how to do the 
solo or the bridge, so i thought i'll have a shot at tabbing the solo and bridge.
Listen to the song to get the timing
Intro:
E-----------------------------------------------------------------------------------------|
B------------------------------12---------------------------------------------------------|
G-------4----4--6--7----------------------------2-2-2-2-2-2-2-2-2-2-2-2-2-2-2-3-3-3-3-3---|
D------------------------------14----------------2-2-2-2-2-2-2-2-2-2-2-2-2-2-2-2-2-2-2-2--|
A-------2----2--4--5----------------------------0-0-0-0-0-0-0-0-0-0-0-0-0-0-0-0-0-0-0-0---|
E-----------------------------------------------------------------------------------------|

Verse:
E-----------------------------------------------------------------------|
B-----------------------------------------------------------------------|
G----------2-----2-2-2-2-2-2-2-2-2-2-2-2-2-2-2---------3-3-3-3-3-3-3-3--|
D----------2-----2-2-2-2-2-2-2-2-2-2-2-2-2-2-2---------2-2-2-2-2-2-2-2--|
A----------0-----0-0-0-0-0-0-0-0-0-0-0-0-0-0-0---------0-0-0-0-0-0-0-0--|

Chorus:
E----------------------------------------------|
B----------------------------------------------|
G-------------2-2-2-2-2-2-2-2-2-2-2-2-2-2-2-2--|
D-------------2-2-2-2-2-2-2-2-2-2-2-2-2-2-2-2--|
A-------------0-0-0-0-0-0-0-0-0-0-0-0-0-0-0-0--|
E----------------------------------------------|

Bridge:
E----------------------------------|
B----------7--7--5--5--10-10-10-7--|
G----------8--8--6--6--11-11-11-8--|
D----------9--9--7--7--12-12-12-9--|
E----------------------------------|

Solo:
E---------------17------14--------------------------------------------------|
B-------------------17------14-----------------17/18------------------------|
G------------------------16-------14-----16---------------------------------|
D------------------------------------------------------------15--------14v--|
A---------------------------------------------------------------------------|
E---------------------------------------------------------------------------|

E---17--------14-----------------------------------------------------------------------------|
B--------17---------14--------------------17/18----------------------------------------------|
G--------------16------------14-----16-------------------------------------------------------|
D------------------------------------------------------15-------14v-------14h15p14h15p14h15--|
A--------------------------------------------------------------------------------------------|
E--------------------------------------------------------------------------------------------|

Back to Bridge twice

Well there you go I hope you guys like it let me know if there's any corrections.
Tap to rate this tab
 
# A B C D E F G H I J K L M N O P Q R S T U V W X Y Z