Song name
# A B C D E F G H I J K L M N O P Q R S T U V W X Y Z

Paul Mccartney - The Man tab

Intro Chords

Dm C A# F C F C Dm A# G

Intro Riff
e-108108----------------8-----810-------------------------|
B-------108-68-686-10810-10810---10-865-6-5-8-108h6h------|
G-------------7------------------------7------------------|
D---------------------------------------------------------|
A---------------------------------------------------------|
E---------------------------------------------------------|

F
There's a man
        G                     Am
Who plays the game of life so well
A#                     F
Ooh, there's such a man
G                          Am
His thoughts you can never tell

A#                     Am
And it's just the way he thought it would be
A#                     Am
'Cause the day has come for him to be free
A#                     Am
Then he laughs, and kicks and rolls up his sleeves
A#                     Am                      D
I'm alive and I'm here forever, this is the man

A#                     Am
And it's just the way he thought it would be
A#                     Am
'Cause the day has come for him to be free
A#                     Am
Then he laughs, and kicks and rolls up his sleeves
A#                     Am                      D
I'm alive and I'm here forever, this is the man

F
There's a man
G                       Am
Everybody thought they knew
A#                     F
Ooh, there's such a man
        G            Am
He's not like me and you

A#                     Am
And it's just the way he thought it would be
A#                     Am
'Cause the day has come for him to be free
A#                     Am
Then he laughs, and kicks and rolls up his sleeves
A#                     Am                      D
I'm alive and I'm here forever, this is the man

A#                     Am
And it's just the way he thought it would be
A#                     Am
'Cause the day has come for him to be free
A#                     Am
Then he laughs, and kicks and rolls up his sleeves
A#                     Am                      D
I'm alive and I'm here forever, this is the man

Solo (or play Dm C A# F C F C Dm A# G twice)

e-108108----------------8-----810-------------------------|
B-------108-68-686-10810-10810---10-865-6-5-8-108h6h------|
G-------------7------------------------7------------------|
D---------------------------------------------------------|
A---------------------------------------------------------|
E---------------------------------------------------------|

e-101310----------------8-----810-------------------------|
B-------13108-68-686-10810-10810---10-865-6-5-8-108h6h----|
G---------------7------------------------7----------------|
D---------------------------------------------------------|
A---------------------------------------------------------|
E---------------------------------------------------------|

         F        G                  Am
Did you know this man can do anything?
A#                    F
Ooh, there's such a man
  G                       Am     A#
I wish that we could bring

A#                     Am
And it's just the way he thought it would be
A#                     Am
'Cause the day has come for him to be free
A#                     Am
Then he laughs, and kicks and rolls up his sleeves
A#                     Am                      D
I'm alive and I'm here forever, this is the man

A#                     Am
And it's just the way he thought it would be
A#                     Am
'Cause the day has come for him to be free
A#                     Am
Then he laughs, and kicks and rolls up his sleeves
A#                     Am                      D
I'm alive and I'm here forever, this is the man

This is the man, ooh yeah
This is the man
This is the man
Tap to rate this tab
# A B C D E F G H I J K L M N O P Q R S T U V W X Y Z