Song name
# A B C D E F G H I J K L M N O P Q R S T U V W X Y Z

Paul Mccartney - On My Way To Work tab

Tune: "On My Way To Work"
Artist: Paul McCartney
Album: New [2013]

 G
On my way to work
 C           Em
I rode a big green bus
 Em
I could see everything
  C             G
From the upper deck
 G
People came and went
 C        Em
Smoking cigarettes
 Em
I picked the packets up
  C             G
When the people left

 C               Am
But all the time I thought of you
             F
How far away the future seemed
                  Am
How could I so many dreams?
      C      A7       D
And one of them not come true
 
 G
On my way to work
 C           Em
I bought a magazine
 Em
Inside a pretty girl
 C           G
Who liked to water-ski
 G
She came from chichester
 C       Em 
To study history
 Em
She had removed her clothes
 C            G
For the likes of me

RIFF
e-----------------------------------|
B-------8----------10-8-------------|
G-9-7-9------9-7-9------9-----------|
D--------------------------7--5--2--|
A--------------------------7--5--2--|
E--------------------------5--3--0--|

e-----------------------------------|
B-------8----------10-8-------------|
G-9-7-9------9-7-9------9-----------|
D--------------------------7--5--2--|
A--------------------------7--5--2--|
E--------------------------5--3--0--|

e----------|
B-------8--|
G-9-7-9----|
D----------|
A----------|
E----------|

 C               Am
But all the time I thought of you
                   F
How would you know that I was there?
                    Am
How could I soul-search everywhere?
   C      A7      D
Without knowing what to do

 G
On my way to work
 C           Em
As I was clocking in
 Em
I could see everything
 C           G
How it came to be
 G
People come and go
 C           Em
Smoking cigarettes
 Em
I pick the packets up
 C              G
When the people leave

 C              Am
But all the time I think of you
               F
How far away the future seems
                 Am
How could I have so many dreams
       C         A7      D
And one of them not come true

 G                C Em
On my way to work

(RIFF)

 C                 Am
But all the time I thought of you
                     F
How would you know that I was there?
                     Am
How could I soul search everywhere?
   C      A7      D
Without knowing what to do

 G                 C Em
On my way to work

e---------------------------|
B-------8----------10-8-----|
G-9-7-9------9-7-9------9---|
D---------------------------|
A---------------------------|
E---------------------------|
         On my way to work
Tap to rate this tab
 
# A B C D E F G H I J K L M N O P Q R S T U V W X Y Z