Song name
# A B C D E F G H I J K L M N O P Q R S T U V W X Y Z

Paul Mccartney - Two Fingers tab

Artist: Paul McCartney
Tabbed By: jery100

Paul McCartney only uses 2 fingers to play the whole song.
All strings have to tune two half steps down.

4/4 
                                         
d |-----0-------|-------0------|------0------|-----0------|
A |-----0-------|-------0------|------0------|-----0------|
F |-----5-------|-------5------|------2------|-----1-0h1--|
C |-----5-------|-------5------|------0------|-----0------|
G |-----0-------|-------0------|------2------|-----2------|
D |-----0-------|-------0------|------0------|-----0------|

d |-----0-------|-------0------|------0------|--0----0----|
A |-----0-------|-------0------|------0------|--0----0----|
F |-----5-------|-------5------|------0------|--0----0----|
C |-----5-------|-------5------|------0------|--2----0----|
G |-----0-------|-------0------|------2------|--3----2----|
D |-----0-------|-------0------|------3------|--0----3----|

d |------0------|----0---0-----|------0------|---0---0----|
A |------2------|----2---3-----|------2------|---2---3----|
F |------0------|----0---2-----|------0------|---0---2----|
C |------2------|----2---0-----|------2------|---2---0----|
G |------0------|----0---0-----|------0------|---0---0----|
D |------0------|----0---0-----|------0------|---0---0----|

d |--0----0-----|---0----0-----|-------------|------------|
A |--3----0-----|---0----0-----|-------------|------------|
F |--2----0-----|---0----0-----|-------------|------------|
C |--0----0-----|---0----2-----|--------2----|------2-----|
G |--0----2-----|---2----3-----|-----3-------|---2--------|
D |--0----3-----|---3----0-----|-------------|------------|
             

            again from the beginning 
Tap to rate this tab
# A B C D E F G H I J K L M N O P Q R S T U V W X Y Z