Song name
# A B C D E F G H I J K L M N O P Q R S T U V W X Y Z

Paul Mccartney - Everybody Out There tab

   Am
e|-----------------------------------------|
B|-0-1-0-1/5-3-3---------------------------|
G|----------------5-5-4-4-5-5-4-5----------|x2
D|-----------------------------------------|
A|-----------------------------------------|
E|-----------------------------------------|


F   
Hey, everybody out there, 
Am
You know what it's like, 
G
When you haven't got a life, 
F                     C
when you haven't got a life, 
F
Hey, do you want to make a differance?

G|-2/5-5-5/7-5-|
 
Am
Well stand in the line, 
G
If you haven't got the time, 
        F                C   
I could give you some of mine,
 
    F               G7              Em      Am
For there but for the grace of God go you... And I, 
    F                      G7      Am
We're the brightest objects in the sky,
    F               G7              Em       Am  
For there but for the grace of God go you and I 
    F                  G7      Am
Do some good before you say goodbye, 

  Am
e|-----------------------------------------|
B|-0-1-0-1/5-3-3---------------------------|
G|----------------5-5-4-4-5-5-4-5----------|x2
D|-----------------------------------------|
A|-----------------------------------------|
E|-----------------------------------------|


  F
Hey, I was trying to remember
 Am
How bad it was then, 
         F            C
When you didn't have a friend (x2)

F
Hey everybody out there (ooh ooh ooh ooh), 
Am
Everybody out there, 
F
Hey, everybody out there, 
Am
Everybody out there.

    F               G7              Em      Am
For there but for the grace of God go you... And I, 
    F                      G7      Am
We're the brightest objects in the sky,
    F               G7              Em       Am  
For there but for the grace of God go you and I 
    F                  G7      Am
Do some good before you say goodbye, 
 
  Am
e|-----------------------------------------|
B|-0-1-0-1/5-3-3---------------------------|
G|----------------5-5-4-4-5-5-4-5----------|x2
D|-----------------------------------------|
A|-----------------------------------------|
E|-----------------------------------------|


  
 F 
Hey, everybody out there, 
Am             G
Oh talk to me! I can't hear you, oh yeh yeh yeh yeh, 
   F
Hey is anybody out there, 
 Am              F
I know what it's like (x2)
Anybody out there, I can't hear you, I can't hear you, 
Everybody out there     
Tap to rate this tab
# A B C D E F G H I J K L M N O P Q R S T U V W X Y Z