Song name
# A B C D E F G H I J K L M N O P Q R S T U V W X Y Z

Paul Mccartney - Friends To Go tab

-----------------------------------------------------------------

    PAUL MCCARTNEY - FRIENDS TO GO From CHAOS AND CREATION album.
                     Released on 13th September 2005.

-----------------------------------------------------------------

    Tabbed by:PJVillanueva






I've been waitin on the other side  for your friends to leave 
So I don't have to hide, I prefer they didn't know 
So I've been waiting on the other side  for your friends to go  
I've been sliding down a slippy slope, I've been climbing 
Up a slowly burning rope, but the flame is getting low 
I've been waitin' on the other side  for your friends to go 

You never need to worry about me,  I'll be fine on my own 
Someone else can worry about me 
I've spent a lot of time on my own 
I've spent a lot of time on my own 

I've been waitin till the danger passed  I don't know      
How long the storm is gonna to last  if we're gonna carry on 
I'll been waiting on the other side  till your friends are gone 

So tell me what I wanna know 
I'll be waiting on the other side  for your friends to go 

(solo) 

Someone else can worry about me 
I've spent a lot of time on my own 
I've spent a lot of time on my own 

I've been waiting on the other side 
For your friends to leave so I don't have to hide 
I prefer they didnt know 
So I've been waiting on the other side, for your friends to go 

I've been waiting on the other side 
I've been waiting on the other side, for your friends to go






  E
e|0---0-- 0---0-- 0---0-- 0---0--|0---0-- 0---0-- 0---0-- 0------|
B|0---0---0---0---0---0---0---0--|0---0---0---0---0---0---0------|
G|1---1---1---1---1---1---1---1--|1---1---1---1---1---1---1------|
D|2---2---2---2---2---2---2---2--|2---2---2---2---2---2---2------|
A|2---2---2---2---2---2---2---2--|2---2---2---2---2---2---2------|
E|0---0---0---0---0---0---0---0--|0---0---0---0---0---0---0------|


                                  
                                  Bm
e|0------ 0---0-- 0---0-- 0---0--|2---2-- 2---2-- 2---2-- 2---x--|
B|0-------0---0---0---0---0---0--|3---3---3---3---3---3---3---x--|
G|1-------1---1---0---0---0---0--|4---4---4---4---4---4---4---x--|
D|2-------2---2---2---2---2---2--|4---4---4---4---4---4---4---x--|
A|2-------2---2---2---2---2---2--|2---2---2---2---2---2---2---x--|
E|-------------------------------|-------------------------------|
          I've been waitin on the other       side 


  B6                              E
e|4------ 4---4-- 4---4-- 4------|0---0-- 0------ 0---0-- 0---0--|
B|4-------4---4---4---4---4------|0---0---0-------3---3---3---3--|
G|4-------4---4---4---4---4------|1---1---1-------1---1---1---1--|
D|4-------4---4---4---4---4------|2---2---2-------2---2---2---2--|
A|2-------2---2---2---2---2------|2---2---2-------2---2---2---2--|
E|-------------------------------|-------------------------------|
          for your                I   don't   have    to      hide 
                  friends  leave
                      to      so

  A               Am              E
e|0---0-- 0------ 0---0-- 0---0--|0------ 0---0-- 0---0-- 0------|
B|2---2---2-------1---1---1---1--|0-------0---0---0---0---0------|
G|2---2---2-------2---2---2---2--|1-------1---1---1---1---1------|
D|2---2---2-------2---2---2---2--|2-------2---2---2---2---2------|
A|0---0---0-------0---0---0---0--|2-------2---2---2---2---2------|
E|-------------------------------|0-------0---0---0---0---0------|
          I   prefer they didn't  know            So      I've been 



  B6                              B7
e|4------ 4---4-- 4---4-- 4---x--|2---2-- 2---2-- 2------ 2------|
B|4-------4---4---4---4---4---x--|0---0---0---0---0-------0------|
G|4-------4---4---4---4---4---x--|2---2---2---2---2-------2------|
D|4-------4---4---4---4---4---x--|1---1---1---1---1-------1------|
A|2-------2---2---2---2---2---x--|2---2---2---2---2-------2------|
E|-------------------------------|-------------------------------|
  waiting on the  other       side       for your friends to  go 



  E
e|0---0-- 0---0-- 0---0-- 0---0--|0---0-- 0---0-- 0---0-- 0---0--|
B|0---0---0---0---0---0---0---0--|0---0---0---0---0---0---0---0--|
G|1---1---1---1---1---1---1---1--|1---1---1---1---1---1---1---1--|
D|2---2---2---2---2---2---2---2--|2---2---2---2---2---2---2---2--|
A|2---2---2---2---2---2---2---2--|2---2---2---2---2---2---2---2--|
E|0---0---0---0---0---0---0---0--|0---0---0---0---0---0---0---0--|     

e|------- 0------ ------- 0------|------- 0------ ------- 0------|
B|--------3---------------3------|--------3---------------3------|
G|--------1---------------1------|--------1---------------1------|
D|2---2---2---2-------2---2---2--|----2---2---2-------2---2---2--|
A|2---2---2---2-------2---2---2--|----2---2---2-------2---2---2--|
E|0---0---0---0-------0---0---0--|----0---0---0-------0---0---0--|




                                  Bm
e|0------ 0---0-- 0---0-- 0---0--|2---2-- 2---2-- 2---2-- 2---x--|
B|0-------0---0---0---0---0---0--|3---3---3---3---3---3---3---x--|
G|1-------1---1---0---0---0---0--|4---4---4---4---4---4---4---x--|
D|2-------2---2---2---2---2---2--|4---4---4---4---4---4---4---x--|
A|2-------2---2---2---2---2---2--|2---2---2---2---2---2---2---x--|
E|0-------0---0---0---0---0---0--|-------------------------------|
          I've been               slippy      slope        
                  sliding down a
e|------- 0------ ------- 0------|------- 2------ ------- 2------|
B|--------0---------------0------|--------3---------------3------|
G|--------1---------------0------|4---4---4---4-------4---4------|
D|2---2---2-------2---2---2------|4---4---4---4-------4---4------|
A|2---2---2-------2---2---2------|2---2---2---2-------2---2------|
E|0---0---0-------0---0---0------|-------------------------------|




  B6                              E
e|4---4-- 4---4-- 4---4-- 4---0--|0---0-- 0---0-- 0---0-- 0------|
B|4---4---4---4---4---4---4---0--|0---0---0---0---3---3---3------|
G|4---4---4---4---4---4---4---1--|1---1---1---1---1---1---1------|
D|4---4---4---4---4---4---4---2--|2---2---2---2---2---2---2------|
A|2---2---2---2---2---2---2---2--|2---2---2---2---2---2---2------|
E|----------------------------0--|0---0---0---0---0---0---0------|
         I've been climbing up a  slowly      burning         rope,
e|------- 2------ ------- 2------|------- 0------ ------- 0------|
B|--------4---------------4------|--------0---------------3------|
G|4---4---4-------4---4---4---4--|--------1---------------1------|
D|4---4---4-------4---4---4---4--|2---2---2-----------2---2------|
A|2---2---2-------2---2---2---2--|2---2---2-----------2---2------|
E|-------------------------------|0---0---0-----------0---0------|
                  
                     


  A               Am              E
e|0---0-- 0---0-- 0---0-- 0------|0------ ----0-- 0---0-- 0------|
B|2---2---2---2---1---1---1------|0-----------0---0---0---0------|
G|2---2---2---2---2---2---2------|1-----------1---1---1---1------|
D|2---2---2---2---2---2---2------|2-----------2---2---2---2------|
A|0---0---0---0---0---0---0------|2-----------2---2---2---2------|
E|-------------------------------|0-----------0---0---0---0------|
         but the flame is getting low                     I've been 
e|------- 0------ ------- 0------|------- 0------ ------- 0------|
B|--------2---------------1------|--------0---------------0------|
G|2---2---2---2-------2---2------|--------1---------------1------|
D|2---2---2---2-------2---2------|--------2---------------2------|
A|0---0---0---0-------0---0------|--------2---------------2------|
E|-------------------------------|--------0---------------0------|

e|------- ------- ------- -------|4------ 4------ 4------ 4------|
B|5-------5-------5-------5------|5-------5-------5-------5------|
G|6-------6-------5-------5------|----4-------4-------4-------4--|
D|----7-------7-------7-------7--|-------------------------------|
A|-------------------------------|-------------------------------|
E|-------------------------------|-------------------------------|



  
  B6                              B7
e|4------ 4---4-- 4---4-- 4------|2---2-- 2---2-- 2------ 2---2--|
B|4-------4---4---4---4---4------|0---0---0---0---0-------0---0--|
G|4-------4---4---4---4---4------|2---2---2---2---2-------2---2--|
D|4-------4---4---4---4---4------|1---1---1---1---1-------1---1--|
A|2-------2---2---2---2---2------|2---2---2---2---2-------2---2--|
E|-------------------------------|-------------------------------|
  waiting on the  other       side       for your friends to  go 
e|------- 2------ ------- 2------|------- 2------ ------- 2------|
B|--------4---------------4------|--------0---------------0------|
G|--------4---------------4---4--|--------2---------------2------|
D|--------4---------------4---4--|--------1---------------1------|
A|--------2---------------2---2--|--------2---------------2------|
E|-------------------------------|-------------------------------|

e|4------ 4------ 4------ 4------|5------ 5------ 5------ 5------|
B|4-------4-------4-------4------|4-------4-------4-------4------|
G|----4-------4-------4-------4--|----4-------4-------4-------4--|
D|-------------------------------|-------------------------------|
A|-------------------------------|-------------------------------|
E|-------------------------------|-------------------------------|



      x   x x   x x   x   x   x       x   x x   x x   x   x   x 
  E                               E7
e|0---0-- 0---0-- 0---0-- 0---0--|0---0-- 0---0-- ----0-- 0---0--|
B|0---0---0---0---0---0---0---0--|3---3---3---3-------3---3---3--|
G|1---1---1---1---1---1---1---1--|1---1---1---1-------1---1---1--|
D|2---2---2---2---2---2---2---2--|2---2---2---2-------2---2---2--|
A|2---2---2---2---2---2---2---2--|2---2---2---2-------2---2---2--|
E|0---0---0---0---0---0---0---0--|0---0---0---0-------0---0---0--|

e|------- 0------ ------- 0------|------- 0------ ------- 0------|
B|--------0---------------0------|--------3---------------3------|
G|--------1---------------1------|--------1---------------1------|
D|2---2---2---2-------2---2---2--|----2---2---2-------2---2---2--|
A|2---2---2---2-------2---2---2--|----2---2---2-------2---2---2--|
E|0---0---0---0-------0---0---0--|----0---0---0-------0---0---0--|

e|4------ 4------ 4------ 4------|4------ 4------ 4------ 4------|
B|5-------5-------5-------5------|3-------3-------3-------3------|
G|4-------4-------4-------4------|4-------4-------4-------4------|
D|-------------------------------|-------------------------------|
A|-------------------------------|-------------------------------|
E|-------------------------------|-------------------------------|




  A               Am              E
e|0------ 0---0-- 0------ 0------|0------ 0---0-- 0---0-- 0------|
B|2-------2---2---1-------1------|0-------0---0---0---0---0------|
G|2-------2---2---2-------2------|1-------1---1---1---1---1------|
D|2-------2---2---2-------2------|2-------2---2---2---2---2------|
A|0-------0---0---0-------0------|2-------2---2---2---2---2------|
E|-------------------------------|0-------0---0---0---0---0------|
      You never   need    to      worry   about       me
e|------- 0------ ------- 0------|------- 0------ ------- 0------|
B|--------2---------------1------|--------0---------------0------|
G|--------2---------------2------|--------1---------------1------|
D|--------2---------------2------|--------2-----------2---2------|
A|--------0---------------0------|--------2-----------2---2------|
E|-------------------------------|--------0-----------0---0------|

e|------- ------- ------- -------|4------ 4------ 4------ 4------|
B|5-------5-------5-------5------|5-------5-------5-------5------|
G|6-------6-------5-------5------|----4-------4-------4-------4--|
D|----7-------7-------7-------7--|-------------------------------|
A|-------------------------------|-------------------------------|
E|-------------------------------|-------------------------------|




  F#m                             Dbm
e|2---2-- 2---2-- 2---2-- 2------|4------ 4---4-- 4---4-- 4------|
B|2---2---2---2---2---2---2------|5-------5---5---5---5---5------|
G|2---2---2---2---2---2---2------|6-------6---6---6---6---6------|
D|4---4---4---4---4---4---4------|6-------6---6---6---6---6------|
A|4---4---4---4---4---4---4------|4-------4---4---4---4---4------|
E|2---2---2---2---2---2---2------|-------------------------------|
     I'll be  fine    on  my  own 
e|------- 2------ ------- 2------|------- 4------ ------- 4------|
B|--------2---------------2------|--------5---------------5------|
G|--------2---------------2------|--------6---------------6------|
D|--------4---------------4------|--------6---------------6------|
A|--------4---------------4------|--------4---------------4------|
E|--------2---------------2------|-------------------------------|   

e|5------ 5------ 5------ 5------|4------ 4------ 4------ 4------|
B|7-------7-------7-------7------|5-------5-------5-------5------|
G|----6-------6-------6-------6--|----6-------6-------6-------6--|
D|-------------------------------|-------------------------------|
A|-------------------------------|-------------------------------|
E|-------------------------------|-------------------------------|

e|------- ------- ------- -------|------- ------- ------- -------|
B|-------------------------------|-------------------------------|
G|-------------------------------|-------------------------------|
D|-------------------------------|------------------------6-\-5--|
A|-------------------------------|----4-----------7--------------|
E|-------------------------------|-------------------------------|




  C                           G
e|0------ 0---0-- 0---0-- 0---3--|3---3-- 3---3-- 3---3-- 3---0--|
B|1-------1---1---1---1---1---3--|3---3---3---3---3---3---3---0--|
G|0-------0---0---0---0---0---0--|0---0---0---0---0---0---0---0--|
D|2-------2---2---2---2---2---0--|0---0---0---0---0---0---0---0--|
A|3-------3---3---3---3---3---2--|2---2---2---2---2---2---2------|
E|3-------3---3---3---3---3---3--|3---3---3---3---3---3---3------|
          Someone else    can     worry   about       me 
e|------- 3------ ------- 3------|------- 3------ ------- 3------|
B|--------5---------------5------|--------3---------------3------|
G|--------5---------------5------|--------4---------------4------|
D|--------5---------------5------|--------5---------------5------|
A|--------3---------------3------|--------5---------------5------|
E|-------------------------------|--------3---------------3------|

e|3------ 3------ 3------ 3------|3------ 3------ 3------ 3------|
B|5-------5-------5-------5------|3-------3-------3-------3------|
G|----5-------5-------5-------5--|----4-------4-------4-------4--|
D|-------------------------------|-------------------------------|
A|-------------------------------|-------------------------------|
E|-------------------------------|-------------------------------|

e|------- ------- ------- -------|------- ------- ------- -------|
B|-------------------------------|-------------------------------|
G|-------------------------------|-------------------------------|
D|-------------------------------|-------------------------------|
A|-------------------------------|5------------------------------|
E|-------------------------------|-------------------------------|




  F#m7
e|2------ 2---2-- 2---2-- 2---2--|2---2-- 2------ 2---2-- 2------|
B|5-------5---5---5---5---5---5--|5---5---5-------5---5---5------|
G|2-------2---2---2---2---2---2--|2---2---2-------2---2---2------|
D|2-------2---2---2---2---2---2--|2---2---2-------2---2---2------|
A|4-------4---4---4---4---4---4--|4---4---4-------4---4---4------|
E|2-------2---2---2---2---2---2--|2---2---2-------2---2---2------|
     I've spent a lot of      time    on  my  own 
e|------- 2------ ------- 2------|------- 2------ ------- 2------|
B|--------5---------------5------|--------5---------------5------|
G|--------2---------------2------|--------2---------------2------|
D|--------2---------------2------|--------2---------------2------|
A|--------4---------------4------|--------4---------------4------|
E|--------2---------------2------|--------2---------------2------|

e|5------ 5------ 5------ 5------|5------ 5------ 5------ 5------|
B|7-------7-------7-------7------|7-------7-------7-------7------|
G|----6-------6-------6-------6--|----6-------6-------6-------6--|
D|-------------------------------|-------------------------------|
A|-------------------------------|-------------------------------|
E|-------------------------------|-------------------------------|  

e|------- ------- ------- -------|------- ------- ------- -------|
B|-------------------------------|-------------------------------|
G|-------------------------------|-------------------------------|
D|4------------------------------|----------------2-------4---4/6\
A|-------------------------------|----------2/4-------4----------|
E|-------------------------------|-------------------------------|




                                  B7
e|2------ 2---2-- 2---2-- 2------|2---2-- 2---2-- 2---2-- 2------|
B|5-------5---5---5---5---5------|0---0---0---0---0---0---0------|
G|2-------2---2---2---2---2------|2---2---2---2---2---2---2------|
D|2-------2---2---2---2---2------|1---1---1---1---1---1---1------|
A|4-------4---4---4---4---4------|2---2---2---2---2---2---2------|
E|2-------2---2---2---2---2------|-------------------------------|  
     I've spent a lot of      time    on  my  own 
e|------- 2------ ------- 2------|------- 2------ 2------ 2------|
B|--------5---------------5------|--------4-------4-------4------|
G|--------2---------------2------|--------4-------4-------4------|
D|--------2---------------2------|--------4-------4-------4------|
A|--------4---------------4------|--------2-------2-------2------|
E|--------2---------------2------|-------------------------------|

e|5------ 5------ 5------ 5------|2------ 2------ 2------ 2------|
B|7-------7-------7-------7------|4-------4-------4-------4------|
G|----6-------6-------6-------6--|----4-------4-------4-------4--|
D|-------------------------------|-------------------------------|
A|-------------------------------|-------------------------------|
E|-------------------------------|-------------------------------|

e|------- ------- ------- -------|------- ------- ------- -------|
B|-------------------------------|-------------------------------|
G|-------------------------------|-------------------------------|
D|4------------------------------|-------------------------------|
A|-------------------------------|-------------------------------|
E|-------------------------------|------------------------7-\----|




  E                               Bm
e|0------ 0---0-- 0---0-- 0---0--|2---2-- 2---2-- 2---2-- 2------|   
B|0-------0---0---0---0---0---0--|3---3---3---3---3---3---3------|
G|1-------1---1---0---0---0---0--|4---4---4---4---4---4---4------|
D|2-------2---2---2---2---2---2--|4---4---4---4---4---4---4------|
A|2-------2---2---2---2---2---2--|2---2---2---2---2---2---2------|
E|-------------------------------|-------------------------------|
         I've been waitin till the danger     passed         
e|------- 0------ ------- 0------|------- 2------ ------- 2------|
B|--------0---------------0------|--------3---------------3------|
G|--------1---------------0------|--------4---------------4------|
D|--------2---------------2------|--------4---------------4------|
A|--------2---------------2------|--------2---------------2------|
E|--------0---------------0------|-------------------------------|

e|4------ 4------ 3------ 3------|2------ 2------ 2------ 2------|
B|5-------5-------5-------5------|3-------3-------3-------3------|
G|----4-------4-------4-------4--|----4-------4-------4-------4--|
D|-------------------------------|-------------------------------|
A|-------------------------------|-------------------------------|
E|-------------------------------|-------------------------------|   

e|------- ------- ------- -------|------- ------- ------- -------|
B|-------------------------------|-------------------------------|
G|-------------------------------|-------------------------------|
D|-------------------------------|-------------------------------|
A|-------------------------------|------------------------5---4--|
E|0------------------------------|7-------------------7----------|




  B6                              E
e|4------ 4---4-- 4---4-- 4------|0---0-- 0---0-- 0---0-- 0---0--|
B|4-------4---4---4---4---4------|0---0---0---0---3---3---3---3--|
G|4-------4---4---4---4---4------|1---1---1---1---1---1---1---1--|
D|4-------4---4---4---4---4------|2---2---2---2---2---2---2---2--|
A|2-------2---2---2---2---2------|2---2---2---2---2---2---2---2--|
E|-------------------------------|0---0---0---0---0---0---0---0--|
          I   don't      long the storm is    gonna           last       
                  know how
e|------- 2------ ------- 2------|0------ 0------ ------- 0------|
B|--------4---------------4------|0-------0---------------3------|
G|--------4---------------4------|1-------1---------------1------|
D|--------4---------------4------|2-------2---------------2------|
A|--------2---------------2------|2-------2---------------2------|
E|-------------------------------|0-------0---------------0------|

e|2------ 2------ 2------ 2------|4------ 4------ 4------ 4------|
B|4-------4-------4-------4------|5-------5-------3-------3------|
G|----4-------4-------4-------4--|4-------4-------4-------4------|
D|-------------------------------|-------------------------------|
A|-------------------------------|-------------------------------|
E|-------------------------------|-------------------------------|  

e|------- ------- ------- -------|------- ------- ------- -------|
B|-------------------------------|-------------------------------|
G|-------------------------------|-------------------------------|
D|-------------------------------|-------------------------------|
A|-------------------------------|-------------------------------|
E|7------------------------------|0---------------4--------------|

                 


  A               Am              E
e|0---0-- 0------ 0---0-- 0---0--|0------ 0---0-- 0---0-- 0------|
B|2---2---2-------1---1---1---1--|0-------0---0---0---0---0------|
G|2---2---2-------2---2---2---2--|1-------1---1---1---1---1------|
D|2---2---2-------2---2---2---2--|2-------2---2---2---2---2------|
A|0---0---0-------0---0---0---0--|2-------2---2---2---2---2------|
E|-------------------------------|0-------0---0---0---0---0------|
          if we're gonna  carry   on                      I've been 
e|------- 0------ 0------ 0------|0------ 0------ ------- 0------|
B|--------2-------1-------1------|0-------0---------------0------|
G|--------2-------2-------2------|1-------1---------------1------|
D|--------2-------2-------2------|2-------2---------------2------|
A|--------0-------0-------0------|2-------2---------------2------|
E|-------------------------------|0-------0---------------0------|  

e|------- ------- ------- -------|4------ 4------ 4------ 4------|
B|5-------5-------5-------5------|5-------5-------5-------5------|
G|6-------6-------5-------5------|----4-------4-------4-------4--|
D|----7-------7-------7-------7--|-------------------------------|
A|-------------------------------|-------------------------------|
E|-------------------------------|-------------------------------|

e|------- ------- ------- -------|------- ------- ------- -------|
B|-------------------------------|-------------------------------|
G|-------------------------------|-------------------------------|
D|-------------------------------|-------------------------------|
A|-------------------------------|--------7---------------5---4--|
E|5------------------------------|0-------------------0----------|




  B6                              B7
e|4------ 4---4-- 4---4-- 4------|2---2-- 2---2-- 2---2-- 2------|   
B|4-------4---4---4---4---4------|0---0---0---0---0---0---0------|
G|4-------4---4---4---4---4------|2---2---2---2---2---2---2------|
D|4-------4---4---4---4---4------|1---1---1---1---1---1---1------|
A|2-------2---2---2---2---2------|2---2---2---2---2---2---2------|
E|-------------------------------|-------------------------------|
  waiting on the  other       side       till your friends are gone 
e|4------ 4------ 4------ 4------|5------ 5------ 5------ 5------|
B|4-------4-------4-------4------|4-------4-------4-------4------|
G|4-------4-------4-------4------|4-------4-------4-------4------|
D|4-------4-------4-------4------|4-------4-------4-------4------|
A|2-------2-------2-------2------|2-------2-------2-------2------|
E|-------------------------------|-------------------------------|

e|4------ 4------ 4------ 4------|5------ 5------ 5------ 5------|
B|4-------4-------4-------4------|4-------4-------4-------4------|
G|----4-------4-------4-------4--|----4-------4-------4-------4--|
D|-------------------------------|-------------------------------|
A|-------------------------------|-------------------------------|
E|-------------------------------|-------------------------------|

e|------- ------- ------- -------|------- ------- ------- -------|
B|-------------------------------|-------------------------------|
G|-------------------------------|-------------------------------|
D|-------------------------------|----------------------------2--|
A|-------------------------------|------------2---2-----2/4------|
E|7---------------------------7-\|2------------------------------|




  E                               E7
e|0---0-- 0---0-- 0---0-- 0---0--|0---0-- 0---0-- 0---0-- 0---0--|
B|0---0---0---0---0---0---0---0--|3---3---3---3---3---3---3---3--|
G|1---1---1---1---1---1---1---1--|1---1---1---1---1---1---1---1--|
D|2---2---2---2---2---2---2---2--|2---2---2---2---2---2---2---2--|
A|2---2---2---2---2---2---2---2--|2---2---2---2---2---2---2---2--|
E|0---0---0---0---0---0---0---0--|0---0---0---0---0---0---0---0--|     
                                                              So
e|0------ 0------ 0------ 0------|0------ 0------ 0------ 0------|
B|0-------0-------0-------0------|3-------3-------3-------3------|
G|1-------1-------1-------1------|1-------1-------1-------1------|
D|2-------2-------2-------2------|2-------2-------2-------2------|
A|2-------2-------2-------2------|2-------2-------2-------2------|
E|0-------0-------0-------0------|0-------0-------0-------0------|

e|4------ 4------ 4------ 4------|4------ 4------ 4------ 4------|
B|5-------5-------5-------5------|3-------3-------3-------3------|
G|4-------4-------4-------4------|4-------4-------4-------4------|
D|-------------------------------|-------------------------------|
A|-------------------------------|-------------------------------|
E|-------------------------------|-------------------------------|

e|------- ------- ------- -------|------- ------- ------- -------|
B|-------------------------------|-------------------------------|
G|-------------------------------|-------------------------------|
D|-------------------------------|-------------------------------|
A|----------/-7---7-------\------|----7---7--\------------7------|
E|0---------------------------0--|0---------------0--------------|




  B6                              B7
e|4------ 4---4-- 4---4-- 4------|2---2-- 2------ 2---2-- 2---2--|
B|4-------4---4---4---4---4------|0---0---0-------0---0---0---0--|
G|4-------4---4---4---4---4------|2---2---2-------2---2---2---2--|
D|4-------4---4---4---4---4------|1---1---1-------1---1---1---1--|
A|2-------2---2---2---2---2------|2---2---2-------2---2---2---2--|
E|-------------------------------|-------------------------------|
  tell me what I  wanna       know                        I'll be
e|4------ 4------ 4------ 4------|5------ 5------ 5------ 5------|
B|4-------4-------4-------4------|4-------4-------4-------4------|
G|4-------4-------4-------4------|4-------4-------4-------4------|
D|4-------4-------4-------4------|4-------4-------4-------4------|
A|2-------2-------2-------2------|2-------2-------2-------2------|
E|-------------------------------|-------------------------------|

e|4------ 4------ 4------ 4------|5------ 5------ 5------ 5------|
B|4-------4-------4-------4------|4-------4-------4-------4------|
G|----4-------4-------4-------4--|----4-------4-------4-------4--|
D|-------------------------------|-------------------------------|
A|-------------------------------|-------------------------------|
E|-------------------------------|-------------------------------|

e|------- ------- ------- -------|------- ------- ------- -------|
B|-------------------------------|-------------------------------|
G|-------------------------------|-------------------------------|
D|-------------------------------|----9-------9-------9----------|
A|-------------------------------|--------9---------------9-\----|
E|7-----------7---7--------------/7---------------7--------------|




  B6                              B7
e|4------ 4------ 4---4-- 4------|2---2-- 2---2-- 2---2-- 2------|
B|4-------4-------4---4---4------|0---0---0---0---0---0---0------|
G|4-------4-------4---4---4------|2---2---2---2---2---2---2------|
D|4-------4-------4---4---4------|1---1---1---1---1---1---1------|
A|2-------2-------2---2---2------|2---2---2---2---2---2---2------|
E|-------------------------------|-------------------------------|
  waiting on the  other       side        for your friends to go 
e|4------ 4------ 4------ 4------|5------ 5------ 5------ 5------|
B|4-------4-------4-------4------|4-------4-------4-------4------|
G|4-------4-------4-------4------|4-------4-------4-------4------|
D|4-------4-------4-------4------|4-------4-------4-------4------|
A|2-------2-------2-------2------|2-------2-------2-------2------|
E|-------------------------------|-------------------------------|

e|4------ 4------ 4------ 4------|5------ 5------ 5------ 5------|
B|4-------4-------4-------4------|4-------4-------4-------4------|
G|----4-------4-------4-------4--|----4-------4-------4-------4--|
D|-------------------------------|-------------------------------|
A|-------------------------------|-------------------------------|
E|-------------------------------|-------------------------------|

e|------- ------- ------- -------|------- ------- ------- -------|
B|-------------------------------|-------------------------------|
G|-------------------------------|-------------------------------|
D|-------------------------------|----9-------9-------9----------|
A|-------------------------------|--------9---------------9-\----|
E|7-----------7---7--------------/7---------------7--------------|




  E                               E7
e|0---0-- 0---0-- 0---0-- 0------|0---0-- 0------ 0---0-- 0---0--|
B|0---0---0---0---0---0---0------|3---3---3-------3---3---3---3--|
G|1---1---1---1---1---1---1------|1---1---1-------1---1---1---1--|
D|2---2---2---2---2---2---2------|2---2---2-------2---2---2---2--|
A|2---2---2---2---2---2---2------|2---2---2-------2---2---2---2--|
E|0---0---0---0---0---0---0------|0---0---0-------0---0---0---0--|
                              Oooooooooooooooooooooohhhh
e|0------ 0------ ------- 0------|0------ 0------ 0------ 0------|
B|0-------0---------------0------|3-------3-------3-------3------|
G|1-------1---------------1------|1-------1-------1-------1------|
D|2-------2---------------2------|2-------2-------2-------2------|
A|2-------2---------------2------|2-------2-------2-------2------|
E|0-------0---------------0------|0-------0-------0-------0------|

e|4------ 4------ 4------ 4------|4------ 4------ 4------ 4------|
B|5-------5-------5-------5------|3-------3-------3-------3------|
G|4-------4-------4-------4------|4-------4-------4-------4------|
D|-------------------------------|-------------------------------|
A|-------------------------------|-------------------------------|
E|-------------------------------|-------------------------------|

e|------- ------- ------- -------|------- ------- ------- -------|
B|-------------------------------|-------------------------------|
G|-------------------------------|-------------------------------|
D|-------------------------------|-------------------------------|
A|7---------------------------7--|7---7-------------------2------|
E|------------0---0--------------|--------0----/--4-----------0--|



  Solo
  A               Am              E
e|0---0-- 0------ 0---0-- 0---0--|0---0-- 0---0-- 0---0-- 0------|
B|2---2---2-------1---1---1---1--|0---0---0---0---0---0---0------|
G|2---2---2-------2---2---2---2--|1---1---1---1---1---1---1------|
D|2---2---2-------2---2---2---2--|2---2---2---2---2---2---2------|
A|0---0---0-------0---0---0---0--|2---2---2---2---2---2---2------|
E|-------------------------------|0---0---0---0---0---0---0------|

e|0------ 0------ 0------ 0------|0------ 0------ 0------ 0------|
B|2-------2-------1-------1------|0-------0-------0-------0------|
G|2-------2-------2-------2------|1-------1-------1-------1------|
D|2-------2-------2-------2------|2-------2-------2-------2------|
A|0-------0-------0-------0------|2-------2-------2-------2------|
E|-------------------------------|0-------0-------0-------0------|

e|------- ------- ------- -------|4------ 4------ 4------ 4------|
B|5-------5-------5-------5------|5-------5-------5-------5------|
G|6-------6-------5-------5------|----4-------4-------4-------4--|
D|----7-------7-------7-------7--|-------------------------------|
A|-------------------------------|-------------------------------|
E|-------------------------------|-------------------------------|

e|------- ------- ------- -------|------- ------- ------- -------|
B|-------------------------------|-------------------------------|
G|-------------------------------|-------------------------------|
D|-------------------------------|-------------------------------|
A|----------------3-----------3--|2------------------------------|
E|5-----------5------------------|----------------0--------------|




  F#m                             Dbm
e|2---2-- 2---2-- 2---2-- 2------|4------ 4---4-- 4---4-- 4------|
B|2---2---2---2---2---2---2------|5-------5---5---5---5---5------|
G|2---2---2---2---2---2---2------|6-------6---6---6---6---6------|
D|4---4---4---4---4---4---4------|6-------6---6---6---6---6------|
A|4---4---4---4---4---4---4------|4-------4---4---4---4---4------|
E|2---2---2---2---2---2---2------|-------------------------------|
    
e|2------ 2------ 2------ 2------|4------ 4------ 4------ 4------|
B|2-------2-------2-------2------|5-------5-------5-------5------|
G|2-------2-------2-------2------|6-------6-------6-------6------|
D|4-------4-------4-------4------|6-------6-------6-------6------|
A|4-------4-------4-------4------|4-------4-------4-------4------|
E|2-------2-------2-------2------|-------------------------------|

e|5------ 5------ 5------ 5------|4------ 4------ 4------ 4------|
B|7-------7-------7-------7------|5-------5-------5-------5------|
G|----6-------6-------6-------6--|----6-------6-------6-------6--|
D|-------------------------------|-------------------------------|
A|-------------------------------|-------------------------------|
E|-------------------------------|-------------------------------|

e|------- ------- ------- -------|------- ------- ------- -------|
B|-------------------------------|-------------------------------|
G|-------------------------------|-------------------------------|
D|-------------------------------|----------------2-----/-6------|
A|-------------------------------|------------4------------------|
E|2---------------5--------------|4------------------------------|




  C                               G
e|0------ 0---0-- 0---0-- 0---3--|3---3-- 3---3-- 3---3-- 3---0--|
B|1-------1---1---1---1---1---3--|3---3---3---3---3---3---3---0--|
G|0-------0---0---0---0---0---0--|0---0---0---0---0---0---0---0--|
D|2-------2---2---2---2---2---0--|0---0---0---0---0---0---0---0--|
A|3-------3---3---3---3---3---2--|2---2---2---2---2---2---2------|
E|3-------3---3---3---3---3---3--|3---3---3---3---3---3---3------|   
          Someone else    can     worry   about       me
e|------- 3------ ------- 3------|------- 3------ ------- 3------|
B|--------5---------------5------|--------3---------------3------|
G|--------5---------------5------|--------4---------------4------|  
D|--------5---------------5------|--------5---------------5------|
A|--------3---------------3------|--------5---------------5------|
E|-------------------------------|--------3---------------3------|

e|3------ 3------ 3------ 3------|3------ 3------ 3------ 3------|
B|5-------5-------5-------5------|3-------3-------3-------3------|
G|----5-------5-------5-------5--|----4-------4-------4-------4--|
D|-------------------------------|-------------------------------|
A|-------------------------------|-------------------------------|
E|-------------------------------|-------------------------------|

e|------- ------- ------- -------|------- ------- ------- -------|
B|-------------------------------|-------------------------------|
G|-------------------------------|-------------------------------|
D|5------------------------------|-------------------------------|
A|-------------------------------|5------------------------------|
E|-------------------------------|----------------3-------5-----5/




  F#m7
e|2------ 2---2-- 2---2-- 2---2--|2---2-- 2------ 2---2-- 2---2--|
B|5-------5---5---5---5---5---5--|5---5---5-------5---5---5---5--|
G|2-------2---2---2---2---2---2--|2---2---2-------2---2---2---2--|
D|2-------2---2---2---2---2---2--|2---2---2-------2---2---2---2--|
A|4-------4---4---4---4---4---4--|4---4---4-------4---4---4---4--|
E|2-------2---2---2---2---2---2--|2---2---2-------2---2---2---2--|
     I've spent a lot of      time    on  my  own     
e|------- 2------ ------- 2------|------- 2------ ------- 2------|
B|--------5---------------5------|--------5---------------5------|
G|--------2---------------2------|--------2---------------2------|
D|--------2---------------2------|--------2---------------2------|
A|--------4---------------4------|--------4---------------4------|
E|--------2---------------2------|--------2---------------2------|

e|5------ 5------ 5------ 5------|5------ 5------ 5------ 5------|
B|7-------7-------7-------7------|7-------7-------7-------7------|
G|----6-------6-------6-------6--|----6-------6-------6-------6--|
D|-------------------------------|-------------------------------|
A|-------------------------------|-------------------------------|
E|-------------------------------|-------------------------------|

e|------- ------- ------- -------|------- ------- ------- -------|
B|-------------------------------|-------------------------------|
G|-------------------------------|-------------------------------|
D|-------------------------------|----------------9-------7------|
A|-------------------------------|-------------------------------|
E|7-----------7---7-------7-----7/9-------7----------------------|




                                  B7
e|2------ 2---2-- 2---2-- 2------|2---2-- 2---2-- 2---2-- 2------|
B|5-------5---5---5---5---5------|0---0---0---0---0---0---0------|
G|2-------2---2---2---2---2------|2---2---2---2---2---2---2------|
D|2-------2---2---2---2---2------|1---1---1---1---1---1---1------|
A|4-------4---4---4---4---4------|2---2---2---2---2---2---2------|
E|2-------2---2---2---2---2------|-------------------------------|    
     I've spent a lot of      time    on  my  own 
e|------- 2------ ------- 2------|------- 2------ ------- 2------|
B|--------5---------------5------|--------0---------------0------|
G|--------2---------------2------|--------2---------------2------|
D|--------2---------------2------|--------1---------------1------|
A|--------4---------------4------|--------2---------------2------|
E|--------2---------------2------|-------------------------------|   

e|5------ 5------ 5------ 5------|2------ 2------ 2------ 2------|
B|7-------7-------7-------7------|4-------4-------4-------4------|
G|----6-------6-------6-------6--|----4-------4-------4-------4--|
D|-------------------------------|-------------------------------|
A|-------------------------------|-------------------------------|
E|-------------------------------|-------------------------------|

e|------- ------- ------- -------|------- ------- ------- -------|
B|-------------------------------|-------------------------------|
G|-------------------------------|-------------------------------|
D|-------------------------------|-------------------------------|
A|9------------------------------|------------------------9------|
E|----------------9--------------|7-----------7---7---7-------7--|


 
    
  E                               Bm
e|0------ 0---0-- 0---0-- 0---0--|2---2-- 2------ 2---2-- 2---2--|   
B|0-------0---0---0---0---0---0--|3---3---3-------3---3---3---3--|
G|1-------1---1---0---0---0---0--|4---4---4-------4---4---4---4--|
D|2-------2---2---2---2---2---2--|4---4---4-------4---4---4---4--|
A|2-------2---2---2---2---2---2--|2---2---2-------2---2---2---2--|
E|0-------0---0---0---0---0---0--|-------------------------------|
          I've been waitin on the other       side 
e|------- 0------ ------- 0------|------- 2------ ------- 2------|
B|--------0---------------0------|--------3---------------3------|
G|--------1---------------1------|--------4---------------4------|
D|--------2---------------2------|--------4---------------4------|
A|--------2---------------2------|--------2---------------2------|
E|--------0---------------0------|-------------------------------|

e|4------ 4------ 3------ 3------|2------ 2------ 2------ 2------|
B|5-------5-------5-------5------|3-------3-------3-------3------|
G|----4-------4-------4-------4--|----4-------4-------4-------4--|
D|-------------------------------|-------------------------------|
A|-------------------------------|-------------------------------|
E|-------------------------------|-------------------------------|

e|------- ------- ------- -------|------- ------- ------- -------|
B|-------------------------------|-------------------------------|
G|-------------------------------|-------------------------------|
D|-------------------------------|-------------------------------|
A|7------------------------------|------------------------5---4--|
E|----------------0--------------|7------------------------------|




  B6                              E               E7
e|4---4-- 4------ 4---4-- 4---4--|0---0-- 0------ 0---0-- 0---0--|
B|4---4---4-------4---4---4---4--|0---0---0-------3---3---3---3--|
G|4---4---4-------4---4---4---4--|1---1---1-------1---1---1---1--|
D|4---4---4-------4---4---4---4--|2---2---2-------2---2---2---2--|
A|2---2---2-------2---2---2---2--|2---2---2-------2---2---2---2--|
E|-------------------------------|0---0---0-------0---0---0---0--|
          for your                I   don't   have    to      hide 
                  friends  leave
                      to      so
e|2------ 2------ 2------ 2------|------- 0------ ------- 0------| 
B|4-------4-------4-------4------|--------0---------------3------|
G|4-------4-------4-------4------|--------1---------------1------|
D|4-------4-------4-------4------|--------2---------------2------|
A|2-------2-------2-------2------|--------2---------------2------|
E|-------------------------------|--------0---------------0------| 

e|2------ 2------ 2------ 2------|4------ 4------ 4------ 4------|
B|4-------4-------4-------4------|5-------5-------3-------3------|
G|----4-------4-------4-------4--|4-------4-------4-------4------|
D|-------------------------------|-------------------------------|
A|-------------------------------|-------------------------------|
E|-------------------------------|-------------------------------|

e|------- ------- ------- -------|------- ------- ------- -------|
B|-------------------------------|-------------------------------|
G|-------------------------------|-------------------------------|
D|-------------------------------|-------------------------------|
A|-------------------------------|------------7---7---7---7------|
E|7---------------7-----------\--|0------------------------------|




  A               Am              E
e|0---0-- 0------ 0---0-- 0---0--|0------ 0---0-- 0---0-- 0------|
B|2---2---2-------1---1---1---1--|0-------0---0---0---0---0------|
G|2---2---2-------2---2---2---2--|1-------1---1---1---1---1------|
D|2---2---2-------2---2---2---2--|2-------2---2---2---2---2------|
A|0---0---0-------0---0---0---0--|2-------2---2---2---2---2------|
E|-------------------------------|0-------0---0---0---0---0------|
          I   prefer they didn't  know            So      I've been 
e|0------ 0------ 0------ 0------|4------ 4------ 4------ 4------|
B|2-------2-------1-------1------|5-------5-------5-------5------|
G|2-------2-------2-------2------|4-------4-------4-------4------|
D|2-------2-------2-------2------|6-------6-------6-------6------|
A|0-------0-------0-------0------|-------------------------------|
E|-------------------------------|-------------------------------|

e|------- ------- ------- -------|4------ 4------ 4------ 4------|
B|5-------5-------5-------5------|5-------5-------5-------5------|
G|6-------6-------5-------5------|----4-------4-------4-------4--|
D|----7-------7-------7-------7--|-------------------------------|
A|-------------------------------|-------------------------------|
E|-------------------------------|-------------------------------|

e|------- ------- ------- -------|------- ------- ------- -------|
B|-------------------------------|-------------------------------|
G|-------------------------------|-------------------------------|
D|-------------------------------|-------------------------------|
A|-------------------------------|7---------------7--------------|
E|5-----------5---5---5---5------|-------------------------------|




  B6                              B7
e|4------ 4---4-- 4---4-- 4------|2---2-- 2---2-- 2---2-- 2------|
B|4-------4---4---4---4---4------|0---0---0---0---0---0---0------|
G|4-------4---4---4---4---4------|2---2---2---2---2---2---2------|
D|4-------4---4---4---4---4------|1---1---1---1---1---1---1------|
A|2-------2---2---2---2---2------|2---2---2---2---2---2---2------|
E|-------------------------------|-------------------------------|
  waiting on the  other       side       for your friends to  go 
 (waiting on the  other side  the other  side the other  side 
e|4------ 4------ 4------ 4------|5------ 5------ 5------ 5------|
B|4-------4-------4-------4------|4-------4-------4-------4------|
G|4-------4-------4-------4------|4-------4-------4-------4------|
D|4-------4-------4-------4------|4-------4-------4-------4------|
A|2-------2-------2-------2------|2-------2-------2-------2------|
E|-------------------------------|-------------------------------|

e|4------ 4------ 4------ 4------|5------ 5------ 5------ 5------|
B|4-------4-------4-------4------|4-------4-------4-------4------|
G|----4-------4-------4-------4--|----4-------4-------4-------4--|
D|-------------------------------|-------------------------------|
A|-------------------------------|-------------------------------|
E|-------------------------------|-------------------------------|

e|------- ------- ------- -------|------- ------- ------- -------|
B|-------------------------------|-------------------------------|
G|-------------------------------|-------------------------------|
D|-------------------------------|-------------------------------|
A|-------------------------------|-------------------------------|
E|7-----------7---7---7---7------|7-----------7---7---7---7------|




  E              
e|0---0-- 0---0-- 0---0-- 0---0--|0---0-- 0---0-- 0---0-- 0---0--|
B|0---0---0---0---0---0---0---0--|0---0---0---0---0---0---0---0--|
G|1---1---1---1---1---1---1---1--|1---1---1---1---1---1---1---1--|
D|2---2---2---2---2---2---2---2--|2---2---2---2---2---2---2---2--|
A|2---2---2---2---2---2---2---2--|2---2---2---2---2---2---2---2--|
E|0---0---0---0---0---0---0---0--|0---0---0---0---0---0---0---0--| 
                                                          I've been
  friends    your friends    your friends    your friends
      to  go          to  go          to  go          to  go
e|4------ 4------ 4---4-- 4------|4------ 4---4-- 4------ 4------|
B|5-------5-------5---5---5------|5-------5---5---5-------5------|
G|4-------4-------4---4---4------|4-------4---4---4-------4------|
D|6-------6-------6---6---6------|6-------6---6---6-------6------|
A|-------------------------------|-------------------------------|
E|-------------------------------|-------------------------------|   

e|4------ 4------ 4------ 4------|4------ 4------ 4------ 4------|
B|5-------5-------5-------5------|5-------5-------5-------5------|
G|4-------4-------4-------4------|4-------4-------4-------4------|
D|-------------------------------|-------------------------------|
A|-------------------------------|-------------------------------|
E|-------------------------------|-------------------------------|

e|------- ------- ------- -------|------- ------- ------- -------|
B|-------------------------------|-------------------------------|
G|-------------------------------|-------------------------------|
D|-------------------------------|-------------------------------|
A/7-----------7---5---4----------|-------------------------------|
E|----------------------------7--|----------\-0---4---5-------7--|




  B6                              B7
e|4------ 4---4-- 4---4-- 4------|2---2-- 2---2-- 2------ 2------|
B|4-------4---4---4---4---4------|0---0---0---0---0-------0------|
G|4-------4---4---4---4---4------|2---2---2---2---2-------2------|
D|4-------4---4---4---4---4------|1---1---1---1---1-------1------|
A|2-------2---2---2---2---2------|2---2---2---2---2-------2------|
E|-------------------------------|-------------------------------|
  waiting on the  other       side                    I've    been
  waiting on the  other side  the other  side the other  side 
e|4------ 4------ 4------ 4------|2------ 2------ 2------ 2------|
B|5-------5-------5-------5------|4-------4-------4-------4------|
G|4-------4-------4-------4------|4-------4-------4-------4------|
D|6-------6-------6-------6------|4-------4-------4-------4------|
A|-------------------------------|2-------2-------2-------2------|
E|-------------------------------|-------------------------------|

e|4------ 4------ 4------ 4------|5------ 5------ 5------ 5------|
B|4-------4-------4-------4------|4-------4-------4-------4------|
G|----4-------4-------4-------4--|----4-------4-------4-------4--|
D|-------------------------------|-------------------------------|
A|-------------------------------|-------------------------------|
E|-------------------------------|-------------------------------|

e|------- ------- ------- -------|------- ------- ------- -------|
B|-------------------------------|-------------------------------|
G|-------------------------------|-------------------------------|
D|-------------------------------|-------------------------------|
A|-------------------------------|----9-------9-----------9------|
E|------------7---7-----------7--|7-------7-------7---7----------|




  B6                              B7
e|4------ 4---4-- 4---4-- 4------|2---2-- 2---2-- 2---2-- 2------|
B|4-------4---4---4---4---4------|0---0---0---0---0---0---0------|
G|4-------4---4---4---4---4------|2---2---2---2---2---2---2------|
D|4-------4---4---4---4---4------|1---1---1---1---1---1---1------|
A|2-------2---2---2---2---2------|2---2---2---2---2---2---2------|
E|-------------------------------|-------------------------------|
  waiting on the  other       side       for your friends to  go 
  waiting on the  other side  the other  side the other  side 
e|4------ 4------ 4------ 4------|5------ 5------ 5------ 5------|
B|4-------4-------4-------4------|4-------4-------4-------4------|
G|4-------4-------4-------4------|4-------4-------4-------4------|
D|4-------4-------4-------4------|4-------4-------4-------4------|
A|2-------2-------2-------2------|2-------2-------2-------2------|
E|-------------------------------|-------------------------------|

e|4------ 4------ 4------ 4------|5------ 5------ 5------ 5------|
B|4-------4-------4-------4------|4-------4-------4-------4------|
G|----4-------4-------4-------4--|----4-------4-------4-------4--|
D|-------------------------------|-------------------------------|
A|-------------------------------|-------------------------------|
E|-------------------------------|-------------------------------|

e|------- ------- ------- -------|------- ------- ------- -------|
B|-------------------------------|-------------------------------|
G|-------------------------------|-------------------------------|
D|-------------------------------|----9-------9------------------|
A|-------------------------------|--------9-----------9---9------|
E|------------7---7-----------7--|7---------------7--------------|



  E                               Am
e|0------ 0---0-- 0---0-- 0---0--|0---0-- 0------ 0---0-- 0---0--|
B|0-------0---0---0---0---0---0--|1---1---1-------1---1---1---1--|
G|1-------1---1---1---1---1---1--|2---2---2-------2---2---2---2--|
D|2-------2---2---2---2---2---2--|2---2---2-------2---2---2---2--|
A|2-------2---2---2---2---2---2--|0---0---0-------0---0---0---0--|
E|0-------0---0---0---0---0---0--|-------------------------------|
                      Doooooooooo doo doo doo doooooooooooooooooo
  friends    your friends    your friends    your friends
      to  go          to  go          to  go          to  goooooo)  
e|4------ 4------ 4------ 4------|2------ 2------ 2------ 0------|
B|5-------5-------5-------5------|1-------1-------1-------1------|
G|4-------4-------4-------4------|2-------2-------2-------2------|
D|6-------6-------6-------6------|2-------2-------2-------2------|
A|-------------------------------|0-------0-------0-------0------|
E|-------------------------------|-------------------------------|

e|4------ 4------ 4------ 4------|2------ 2------ 2------ 2------|
B|5-------5-------5-------5------|1-------1-------1-------1------|
G|----4-------4-------4-------4--|----2-------2-------2-------2--|
D|-------------------------------|-------------------------------|
A|-------------------------------|-------------------------------|
E|-------------------------------|-------------------------------|

e|------- ------- ------- -------|------- ------- ------- -------|
B|-------------------------------|-------------------------------|
G|-------------------------------|-------------------------------|
D|-------------------------------|-------------------------------|
A/7-----------7---5---4----------|-------------------------------|
E|----------------------------7--|7-----------7---5---3-\-2------|



                                 (.
  E
e|0---0-- 0---0-- 0---0-- 0------|0------ ------- ------- -------|
B|0---0---0---0---0---0---0------|0------------------------------|
G|1---1---1---1---1---1---1------|1------------------------------|
D|2---2---2---2---2---2---2------|2------------------------------|
A|2---2---2---2---2---2---2------|2------------------------------|
E|0---0---0---0---0---0---0------|0------------------------------|
  ooooooooooooooooooooooooohhhhh
e|4------ 4------ 4------ 4------|4------ ------- ------- -------|
B|5-------5-------5-------5------|5------------------------------|
G|4-------4-------4-------4------|4------------------------------|
D|6-------6-------6-------6------|-------------------------------|
A|-------------------------------|-------------------------------|
E|-------------------------------|-------------------------------|

e|4------ 4------ 4------ 4------|4------ ------- ------- -------|
B|5-------5-------5-------5------|5------------------------------|
G|----4-------4-------4-------4--|4------------------------------|
D|-------------------------------|-------------------------------|
A|-------------------------------|-------------------------------|
E|-------------------------------|-------------------------------|

e|------- ------- ------- -------|------- ------- ------- -------|
B|-------------------------------|-------------------------------|
G|-------------------------------|-------------------------------|
D|-------------------------------|-------------------------------|
A|-------------------------------|-------------------------------|
E|0---------------------------0--|0------------------------------|







        B  Bend
        R  Release
        /  Slide up
        \  Slide down
        H  Hammer-on
        P  Pull-off
        ~  Vibrato
        +  Harmonic
        x  Mute note
        .  Play note like a dot in standard notation
        ^  Ties two notes together
        (. Pause




Tap to rate this tab
# A B C D E F G H I J K L M N O P Q R S T U V W X Y Z