Song name
# A B C D E F G H I J K L M N O P Q R S T U V W X Y Z

Paul Mccartney - The Songs We Were Singing tab

This is much easier than the other version, easier to play, and I think Paul prefers 
one. Play this through the whole song exept for the "We always get back...", when you
go to chords. Any questions, e-mail me at annsla@hotmail.com. Your really have to listen
to understand, but it's very easy when you get it.

//Annsla


/----------------------------------------------|
/--------0--------0--------0--------0--------0-|
/-----2--------2--------2--------2--------2----|
/--0--------2--------4--------2--------0-------|
/----------------------------------------------|
/----------------------------------------------|

Osv, and the last time(First verse):

/--------------------0-|
/--------0--------0----|
/-----2--------2-------|
/--2--------0----------|
/----------------------|
/----------------------|

On the second verse you play this in stead at the end:

/-------------------------------------------|
/--------0------0------0--------3-----------|
/-----2------2------2--------2-------2------|
/--2------0------0--------0-------0---------|
/-------------------------------------------|
/-------------------------------------------|

Then chords:

"Always..." - C (Two strokes)
"... back..." - G (Two strokes)
"... songs.." - D (Four strokes)

"Any..."C (Two strokes)
"... -ticular.." - G (Two strokes)
"... time..." - D (Four strokes)

"Always..." - C (Two strokes)
"... back..." - G (Two strokes)
"... songs.." - D (Four strokes)

"Any..."C (Two strokes)
"... -ticular.." - G (Two strokes)
"... time..." - D (special)


I don't think Paul plays it like this, but I thought it was getting plain,
and added this on the last D:

/--3--3--2--|
/--3--3--3--|
/--2--2--2--|
/-----------|
/-----------|
/-----------|

Last stroke long.
Tap to rate this tab
# A B C D E F G H I J K L M N O P Q R S T U V W X Y Z