Guitaretab - guitar tabs
Song name
# A B C D E F G H I J K L M N O P Q R S T U V W X Y Z

Paul Mccartney - Hot As Sun tab

“HOT AS SUN” – Paul McCartney

(MAIN RIFF):

 E:--3-3-3-5-3--7-7-7-8-7--12-12-12-12-10-8-8-10-8-7-7-7-|
 B:------------------------------------------------------|
 G:--4-4-4-5-4--8-8-8-8-8--12-12-12-12-10-9-9-9--9-7-7-7-|
 D:------------------------------------------------------|
 A:------------------------------------------------------|
 E:------------------------------------------------------|

 E:--8-5-5-5--7-5-3-3-5-6-7-7-6-5------------------------|
 B:------------------------------------------------------|
 G:--8-5-5-5--5-5-4-4-5-6-7-7-6-5------------------------|
 D:------------------------------------------------------|
 A:------------------------------------------------------|
 E:------------------------------------------------------|
[ Tab from: http://www.guitaretab.com/p/paul-mccartney/65570.html ]
 E:--3-3-3-5-3--7-7-7-8-7--12-12-12-12-10-8-8-10-8-7-7-7-|
 B:------------------------------------------------------|
 G:--4-4-4-4-4--8-8-8-8-8--12-12-12-12-10-9-9-9--9-7-7-7-|
 D:------------------------------------------------------|
 A:------------------------------------------------------|
 E:------------------------------------------------------|

 E:--8-5-5-5--7-5-3-3-5-6-7-7-6-5------------------------|
 B:------------------------------------------------------|
 G:--8-5-5-5--5-5-4-4-5-6-7-7-6-5------------------------|
 D:------------------------------------------------------|
 A:------------------------------------------------------|
 E:------------------------------------------------------|

C  G  C  D  D7


(REPEAT MAIN RIFF)


||C  G  C  D  D7||: REPEAT AND FADE
Related for Hot As Sun tab
Advertisement will be closed in 10 seconds