Song name
# A B C D E F G H I J K L M N O P Q R S T U V W X Y Z

Paul Mccartney - Oo You tab

Highlighted       Show chord diagrams
***************************
**Paul McCartney - Oo You**
***************************

Artist: Paul McCartney
Song: Oo You
Album: 
Tabbers: Axel
Date: 28/9/2006

| /  slide up
| \  slide down
| h  hammer-on
| p  pull-off
| ~  vibrato
| +  harmonic
| x  Mute note
| b  Bend

How to master these chords:
     G
e|-3-------|                                 
B|-3-------|                                     
G|-0-------|                                           
D|-0-------|                                            
A|-2-------|                                      
E|-3-------|                                    
    Dm7
e|-1-------|
B|-1-------|
G|-2-------|
D|-0-------|
A|---------|
E|---------|
     C
e|-0-------|
B|-1-------|
G|-0-------|
D|-2-------|
A|-3-------|
E|---------|
     G7
e|-1-------|
B|-0-------|
G|-0-------|
D|-0-------|
A|-2-------|
E|-3-------|
   G7sus4
e|-1-------|
B|-1-------|
G|-0-------|
D|-0-------|
A|---------|
E|---------|
     D
e|-2-------|
B|-3-------|
G|-2-------|
D|-0-------|
A|---------|
E|---------|
     G9
e|-1-------|
B|-0-------|
G|-2-------|
D|-0-------|
A|---------|
E|---------|

Verse:
G            Dm7     G C mD7   
 Look like a woman
G               Dm7     G C Dm7
 Dressed like a lady
G            Dm7     G C Dm7    
 Talk like a baby
G              Dm7     G  C
 Loves like a woman

Chorus:
G      G7             C
 Oo   (oo you)    oh!
G7sus4    G7      C  D  
 Oo,      oo, you

Verse:
G            Dm7     G C mD7
 Walk like a woman
G              Dm7     G C Dm7
 Sing like a blackbird
G           Dm7     G C Dm7  
 Eat like a hungry
G            Dm7     G C Dm7  
 Cook like a woman

Chorus:
G      G7             C
 Oo   (oo you)    oh!
G7sus4    G7      C  D  G9  
 Oo,      oo, you

Over and Out//ALAX
Tap to rate this tab
 
# A B C D E F G H I J K L M N O P Q R S T U V W X Y Z