Song name
# A B C D E F G H I J K L M N O P Q R S T U V W X Y Z

Paul Mccartney - My Babys Request tab

Help us improve GuitareTab! Take a short survey!
-----------------------------------------------------------

   PAUL McCARTNEY - MY BABY'S REQUEST. From BACK TO THE EGG 
                    album. Released June 8th 1979.

-----------------------------------------------------------

   Tabbed by:PJVillanueva





When the moon lays his head on a pillow
And the stars settle down for a rest,
Just do me one small favor, I beg you,
Please play me my baby's request.

It's the song that we heard when we started.
Now the birds have all flown from our nest,
But you could bring back mem'ries departed
By playing my baby's request.

My baby said 
That she knows how it goes
But you're the one who really knows,
So go ahead
Just one more time and then we'll go to bed.

But you could bring back mem'ries departed
By playing my baby's request.

My baby says
That she knows how it goes 
but you're the one that really knows.
So go ahead
Just one more time and then we'll go to bed.

When the moon lays his head on a pillow
And the star settle down for a rest,
Just do me one small favour, I beg you,
Please play me baby's request.
Mh-hm, play me baby's request.
Please! Play me my baby's request 
One more time.



 (.                                    
  Am7
e|5------ ------- ------- ------- ------- -------|
B|5----------------------------------------------|
G|5----------------------------------------------|
D|5----------------------------------------------|
A|-----------------------------------------------|
E|5----------------------------------------------|
            P PP                   (.
e|------7 10-987- ------- ------- ------- -------|
B|-----8--------8P7------------------------------|
G|----9------------9P7-6-5-4H5P4-----------------|
D|--10----------------9-8-7-----7-5--------------|
A|----------------------------------7------------|
E|-----------------------------------------------|


 (.
  Ab7
e|7------ ------- ------- ------- ------- -------|
B|7----------------------------------------------|
G|5----------------------------------------------|
D|4----------------------------------------------|
A|6----------------------------------------------|
E|4----------------------------------------------|
                   (.
e|------- ------- ------- ------- ------- -------|
B|-----4--7-654H6--------------------------------|
G|----5-----------5------------------------P-PP--|
D|---6--------------4-~-------------------7-654--|
A|-----------------------------------------------|
E|-----------------------------------------------|






  00:10
  G               Bm      Bbm     Am              D9      D7                         
e|3------ 3------ 7------ 6------|5------ ------- 5------ -------|
B|3-------3-------7-------6------|5-------5-------5-------3------|
G|4-------4-------7-------6------|5-------5-------5-------5------|
D|5-------5-------9-------8------|7-------7-------4-------4------|
A|5-------5-------9-------8------|7-------7-------5-------5------|
E|3-------3-------7-------6------|5-------5----------------------|
                                                             When  
                                                                the
e|------- ------- ------2\1------|------- ------- ------- -------|
B|-------------------3-------2---|------1------------------------|
G|---------------/4-------------3|2-------2--1--0----------------|
D|5------------------------------|----------------4--------------|
A|-------------------------------|----------------------5--------|
E|-------------------------------|-------------------------------|



  G               Bm      Bbm     Am              D9
e|3------ 3------ 7------ 6------|5------ 5------ 5------ 5------|
B|3-------3-------7-------6------|5-------5-------5-------5------|
G|4-------4-------7-------6------|5-------5-------5-------5------|
D|5-------5-------9-------8------|7-------7-------4-------4------|
A|5-------5-------9-------8------|7-------7-------5-------5------|
E|3-------3-------7-------6------|5-------5----------------------|
  moon    lays  head   on       a pillow                     And
             his                                                the
e|------- ------- 2------ -------|------- ------- 7-----5 -------|
B|------------3------------------|5---------------5-----5-5------|
G|--------4----------------------|5---------------5-----5-------5|
D|------4------------------------|5---------------4--------------|
A|-------------------------------|----------------5--------------|
E|-------------------------------|5------------------------------|



  G               Bm      E7#9    Cm                            Am
e|3------ 3------ 7------ -------|3------ 3-----3 3------ 3-----5|
B|3-------3-------7-------8------|4-------4-----4-4-------4-----5|
G|4-------4-------7-------7------|5-------5-----5-5-------5-----5|
D|5-------5-------9-------6------|5-------5-----5-5-------5-----7|     
A|5-------5-------9-------7------|3-------3-----3-3-------3-----7|
E|3-------3-------7--------------|------------------------------5|
  stars   settle          for a rest,
                down
e|------- ------- 2------ 3------|------- ------8 ------8 8------|
B|--------3-------3-------3------|--------------8-------8-8------|
G|------4---------4-------1------|--------8-------------8-8------|
D|---5------------4-------2------|-----10------------------------|
A|5------------------------------|--10---------------------------|
E|-------------------------------|-------------------------------|


                  D9              G               Em7
e|5-----5 5------ 5------ 5------|3------ 3------ 7------ 7------|
B|5-----5-5-------5-------5------|3-------3-------8-------8------|
G|5-----5-5-------5-------5------|4-------4-------7-------7------|
D|7-----7-7-------4-------4------|5-------5-------9-------9------|
A|7-----7-7-------5-------5------|5-------5-------7-------7------|
E|5-----5-5----------------------|3-------3----------------------|
        Just   me one     small favor,          I beg you,     please
          do
                                               (.
  Am              C9              G             D+5
e|5-----5 5------ 3------ 3------|3-----3 3------ ------- -------|
B|5-----5-5-------3-------3------|3-----3-3-----3----------------|
G|5-----5-5-------3-------3------|4-----4-4-----3----------------|
D|7-----7-7-------2-------2------|5-----5-5-----4----------------|
A|7-----7-7-------3-------3------|5-----5-5-----5----------------|
E|5-----5-5----------------------|3-----3-3----------------------|
  Play me My    Baby's    Request                            It's the 


   00:37                                                                      
e|3------ 3-----3 7------ 6------|5------ 5------ 5------ 5------|
B|3-------3-----3-7-------6------|5-------5-------5-------5------|
G|4-------4-----4-7-------6------|5-------5-------5-------5------|
D|5-------5-----5-9-------8------|7-------7-------4-------4------|
A|5-------5-----5-9-------8------|7-------7-------5-------5------|
E|3-------3-----3-7-------6------|5-------5----------------------|
  song    that  heard     when  we                          Now the                                      
             we                   started.                                        
e|------- ------- ------- -------|------- 5------ ------7 ------5|
B|-------------------------------|------5---------------5-------5|
G|-------------------------------|---5------------------5-------5|
D|-------------------------------|7------------------------------|  
A|------------------------------7|--------------5----------------|
E|-------------------------------|-------------------------------|




e|------- 3-----3 7------ 7------|3------ 3-----3 3------ 3-----5|    
B|--------3-----3-7-------7------|4-------4-----4-4-------4-----5|
G|--------4-----4-7-------7------|5-------5-----5-5-------5-----5|
D|--------5-----5-9-------9------|5-------5-----5-5-------5-----7|
A|--------5-----5-9-------9------|3-------3-----3-3-------3-----7|
E|--------3-----3-7-------7------|------------------------------5|
  birds   have  flown    from     nest,   
            all              our
e|------- ------- ------- -------|------- ------8 8------ -------|
B|--------3-------7--------------|8-------------8-8-------8------|
G|------4---------7--------------|8-------------8-8-------8------|   
D|---4------------7--------------|8-------------8-8-------8------|
A|5------------------------------|-------------------------------|
E|----------------7--------------|8-------------8-8-------8------|




e|5-----5 5------ 5------ 5------|------- 3------ 7------ 7-----7|
B|5-----5-5-------5-------5------|--------3-------8-------8-----8|
G|5-----5-5-------5-------5------|--------4-------7-------7-----7|
D|7-----7-7-------4-------4------|--------5-------9-------9-----9|
A|7-----7-7-------5-------5------|--------5-------7-------7-----7|
E|5-----5-5----------------------|--------3----------------------|
        But     could     back  mem'ries        departed        by
          you     bring    
   
                                  G                     G+5
e|5-----5 5------ 5------ 5------|3------ 3------ 3-----3 -------|
B|5-----5-5-------5-------5------|3-------3-------3-----4--------|
G|5-----5-5-------5-------5------|4-------4-------4-----4--------|
D|7-----7-7-------4-------4------|5-------5-------5-----5--------|
A|7-----7-7-------5-------5------|5-------5-------5--------------|
E|5-----5-5----------------------|3-------3-------3--------------|
  playing My    Baby's    Request                       My

  00:59
  Am              D9              G               E7
e|5------ 5------ ------- -------|3------ 3------ ------0 -------|
B|5-------5-------5-----3--------|3-------3-------------5--------|
G|5-------5-------5-----5--------|4-------4-------------7--------|
D|7-------7-------4-----4--------|5-------5-------6-----6--------|
A|7-------7-------5-----5--------|5-------5-------7-----7--------|
E|5-------5----------------------|3-------3-------0--------------|
  baby                          said                            That 


  Am              D9              G                     G+5
e|5------ 5------ 5------ 5------|3------ 3------ 3-----3 -------|
B|5-------5-------5-------5------|3-------3-------3-----4--------|
G|5-------5-------5-------5------|4-------4-------4-----4--------|
D|7-------7-------4-------4------|5-------5-------5-----5--------|
A|7-------7-------5-------5------|5-------5-------5--------------|
E|5-------5----------------------|3-------3-------3--------------|
  she   knows   it      But     the     who       knows,
          how     goes,   you're  one     really        So

  Am                    D7        G               E7
e|5------ 5------ 5-----0 -------|3------ 3------ ------0 -------|
B|5-------5-------5-----3--------|3-------3-------------5--------|
G|5-------5-------5-----5--------|4-------4-------7-----7--------|
D|7-------7-------7-----4--------|5-------5-------6-----6--------|
A|7-------7-------7-----5--------|5-------5-------7-----7--------|
E|5-------5-------5--------------|3-------3-------0--------------|
  go                    ahead                                   Just 

                                               (.
  Am              D9              G             D+5        
e|5------ 5------ 5------ 5------|3------ ------6 ------- -------|
B|5-------5-------5-------5------|3-------------7----------------|
G|5-------5-------5-------5------|4-------------7----------------|
D|7-------7-------4-------4------|5-------------8----------------|
A|7-------7-------5-------5------|5------------------------------|
E|5-------5----------------------|3------------------------------|
  one   more    and     we'll   bed.
          time    then    go to
e|------- ------- ------- -------|------- -----10 ------- -------|
B|-------------------------------|-------------11----------------|
G|-------------------------------|-------------11----------------|
D|-------------------------------|-------------12----------------|
A|-------------------------------|-------------------------------|
E|-------------------------------|-------------------------------|



  01:21 SYNTH MELODY LINE 

  01:32     
  But you could bring back mem'ries departed
  By playing my baby's request.

  01:43
  My baby says
  That she knows how it goes 
  but you're the one that really knows.
  So go ahead
  Just one more time and then we'll go to bed.


                                                             When 
                                                                the 

  02:05

e|3------ 3------ 7------ 6------|5------ 5------ 5------ 5------|
B|3-------3-------7-------6------|5-------5-------5-------5------|
G|4-------4-------7-------6------|5-------5-------5-------5------|
D|5-------5-------9-------8------|7-------7-------4-------4------|
A|5-------5-------9-------8------|7-------7-------5-------5------|
E|3-------3-------7-------6------|5-------5----------------------|
  moon    lays  head   on       a pillow                     And
             his                                                the
e|------- 2------ ------- -------|------- ------- 7--6--5 -------|
B|------3---------7-------6------|5---------------7--6--5--------|
G|---4------------7-------6------|5---------------7--6--5--------|
D|5---------------7-------6------|5------------------------------|
A|-------------------------------|-------------------------------|
E|----------------7-------6------|5------------------------------|




e|3------ 3------ 7------ -------|8------ -------11--10-- 8---7--|
B|3-------3-------7-------8------|8---------------8---8---8---7--|
G|4-------4-------7-------7------|8---------------8---8---8---7--|
D|5-------5-------9-------6------10---------------8---8--10---9--|      
A|5-------5-------9-------7------10--------------10--10--10---9--|
E|3-------3-------7--------------|8---------------8---8---8---7--|
  stars   settle          for a rest,
                down
e|2------ ------- 2------ 3------|------- ------8 ------- -------|
B|3---------------3-------3------|----------8--------------------|
G|4---------------4-------1------|--------8----------------------|
D|5---------------4-------2------|-----10------------------------|
A|-------------------------------|-------------------------------|
E|-------------------------------|-------------------------------|



e|5------ 5------ 5------ 5------|3------ 3------ 7------ 7------|
B|5-------5-------5-------5------|3-------3-------8-------8------|
G|5-------5-------5-------5------|4-------4-------7-------7------|
D|7-------7-------4-------4------|5-------5-------9-------9------|
A|7-------7-------5-------5------|5-------5-------7-------7------|
E|5-------5----------------------|3-------3----------------------|
        Just   me one     small favor,          I beg you,     please
          do
                                             

e|5------ 5------ 3------ 3------|3------ 3------ 7------ 7------|
B|5-------5-------3-------3------|3-------3-------8-------8------|
G|5-------5-------3-------3------|4-------4-------9-------9------|
D|7-------7-------2-------2------|5-------5-------9-------9------|
A|7-------7-------3-------3------|5-------5-------7-------7------|
E|5-----5-5----------------------|3-------3----------------------|
  Play me My    Baby's    Request                       
e|------- ------- ------- -------|------- ------- ---10-- ----7--|
B|-------------------------------|--------------------8-------8--|
G|-------------------------------|--------------------7----------|
D|-------------------------------|--------------------9----------|
A|-------------------------------|-------------------------------|
E|-------------------------------|-------------------------------|

                                               (.                                 
  02:26
  Am              C9              G             Em7
e|5------ 5------ 3------ 3------|3------ 3-----7 ------- -------|
B|5-------5-------3-------3------|3-------3-----8----------------|
G|5-------5-------3-------3------|4-------4-----7----------------|
D|7-------7-------2-------2------|5-------5-----9----------------|
A|7-------7-------3-------3------|5-------5-----7----------------|
E|5-------5----------------------|3-------3----------------------|
  Play me My    Baby's    Request.              Please,


  Am                              C9
e|5-----5 5-----5 5-----5 5-----5|3-----3 3-----3 3-----3 3-----3|
B|5-----5-5-----5-5-----5-5-----5|3-----3-3-----3-3-----3-3-----3|
G|5-----5-5-----5-5-----5-5-----5|3-----3-3-----3-3-----3-3-----3|
D|7-----7-7-----7-7-----7-7-----7|2-----2-2-----2-2-----2-2-----2|
A|7-----7-7-----7-7-----7-7-----7|3-----3-3-----3-3-----3-3-----3|
E|5-----5-5-----5-5-----5-5-----5|-------------------------------|
  play  me                      My                        Request.
                                  Baby's 

  G                                       F#7   G7
e|3------ ------- ------- -------|------- ------- ------- -------|
B|3-----5B6-------5-------3-----5B6-------2-----3----------------|
G|4-----5B6-------5-------3-----5B6-------3-----4----------------|
D|5------------------------------|--------2-----3----------------|
A|5------------------------------|-------------------------------|
E|3------------------------------|-------------------------------|
                                        One  time.
                                          more

       (.
e|-5----5 ------- ------- -------|------- ------- ------- -------|
B|-5----5------------------------|-------------------------------|
G|-4----4------------------------|-------------------------------|
D|-5----5------------------------|-------------------------------|
A|-------------------------------|-------------------------------|
E|-------------------------------|-------------------------------|







        B  Bend
        R  Release
        /  Slide up
        \  Slide down
        H  Hammer-on
        P  Pull-off
        ~  Vibrato
        +  Harmonic
        x  Mute note
        .  Play note like a dot in standard notation
        ^  Ties two notes together
        (. Pause



Related for My Babys Request tab