Song name
# A B C D E F G H I J K L M N O P Q R S T U V W X Y Z

Paul Mccartney - Its For You tab

Help us improve GuitareTab! Take a short survey!
------------------------------------------------------------------

   CILLA BLACK - IT'S FOR YOU (Lennon & McCartney) From "The Best 
                 Of Cilla Black" album. Released November 30 1968. 
                 Being her 4th single, this song topped at # 7 in 
                 the UK charts in 1964.

------------------------------------------------------------------

   Tabbed by:PJVillanueva





   Priscilla (Cilla's real name was Priscilla Maria Veronica 
   White) was working at the Cavern's cloackroom in 1963 and
   some times she was allowed to sing with the groups. John &
   Paul presented the girl to Brian Epstein, who soon got her 
   into the same Beatles production team at EMI. She peacked 
  at # 35 with Lennon/McCartney's LOVE OF THE LOVED, her 1st 
   single and at #1 with B Bacharach's ANYONE WHO HAD A HEART 
   and also at #1 with Umberto Bindi's YOU'RE MY WORLD (IL MIO 
   MONDO) 2nd and 3rd singles. Sure Paul wrote the song while 
   working on A HARD DAY'S NIGHT album (perhaps on BEATLES FOR 
   SALE, two months after AHDN's Premiere).


 


I'd say some day
I'm bound to give my heart away
When I do, it's for you,
Love, true love
Seems to be all I'm thinking of
But it's true, it's for you

They said that love was a lie
Told me that I should never try to find
Somebody who'd be kind, kind to only me

So I just tell them they're right
Who wants a fight?
Tell them I quite agree, nobody'd love me
Then I look at you

And love comes, love shows
I give my heart and no one knows that I do
It's for you.

They said that love was a lie
Told me that I should never try to find
Somebody who'd be kind, kind to only me

So I just tell them they're right
Who wants a fight?
Tell them I quite agree, nobody'd love me
Then I look at you

And love comes, love shows
I give my heart and no one knows, but I do
It's for you
It's for you
It's for you 



  3/4 Time


  INTRO

e|--------- --------- 3--------|3-------- ------3-- 3--------|
B|4----------------------------|6---------------4---3--------|
G|-----------------------------|-----------------------------|
D|-----------------------------|-----------------------------|
A|-----------------------------|-----------------------------|
E|-----------------------------|-----------------------------|


  Cm                  Bb        Cm                  Bb
e|--------- --------- ---------|--------- --------- ---------|
B|4---------4---------3--------|4---------4---------3--------|
G|5---------5---------3--------|5---------5---------3--------|
D|5---------5---------3--------|5---------5---------3--------|
A|3-------------------1--------|3-------------------1--------|
E|-----------------------------|-----------------------------|

  VERSE
  00:05
  Cm                            Cm7
e|--------- --------- ---------|--------- --------- ---------|
B|4---------4---------4--------|----------4---------4--------|
G|5---------5---------5--------|----------3---------3--------|
D|5---------5---------5--------|----------5---------5--------|
A|3----------------------------|-----------------------------|
E|-----------------------------|6----------------------------|
  I'd                           say 

  F                             Fm
e|--------- --------- ---------|--------- --------- ---------|
B|6---------6---------6--------|----------6---------6--------|
G|5---------5---------5--------|----------5---------5--------|
D|3---------3---------3--------|----------3---------3--------|
A|-----------------------------|-----------------------------|
E|5----------------------------|4----------------------------|
  some                          day

  Eb                            Ab                            
e|--------- --------- ---------|--------- --------- ---------|
B|4---------4---------4--------|4---------4---------4--------|
G|3---------3---------3--------|5---------5---------5--------|
D|5---------5---------5--------|6---------6---------6--------|
A|6----------------------------|--------------------3--------|
E|--------------------3--------|4----------------------------|
  I'm       bound     to        give                my 

  Db                            Gb
e|--------- --------- ---------|--------- --------- ---------|
B|----------6---------6--------|2---------2---------2--------|
G|----------6---------6--------|3---------3---------3--------|
D|----------6---------3--------|4---------4---------4--------|
A|4----------------------------|-----------------------------|
E|-----------------------------|2----------------------------|
            heart          away               When  I

  Fm                           
e|--------- --------- ---------|--------- --------- ---------|
B|1---------1---------1--------|1---------1---------1--------|
G|1---------1---------1--------|1---------1---------1--------|
D|3---------3---------3--------|3---------3---------3--------|
A|-----------------------------|-----------------------------|
E|1----------------------------|1----------------------------|     
  do
e|--------- --------- ---------|--------- --------- ---------|
B|--------------------1--------|1--------------1----1--------|
G|1----------------------------|3--------------1----0--------|
D|-----------------------------|-----------------------------|


  Bb                            x      x  X      X  X
e|--------- --------- ---------|--------- --------- ---------|
B|3---------3---------3--------|3----------------------------|
G|3---------3---------3--------|3----------------------------|
D|3---------3---------3--------|3----------------------------|
A|1----------------------------|1----------------------------|
E|-----------------------------|-----------------------------|
                                          It's           for
e|--------- --------- ---------|--------- --------- ---------|
B|1----------------------------|-----------------------------|
G|-----------------------------|-----------------------------|
D|3----------------------------|-----------------------------|

  VERSE
  00:19
e|--------- --------- ---------|--------- --------- ---------|
B|4---------4---------4--------|4---------4---------4--------|
G|5---------5---------5--------|3---------3---------3--------|
D|5---------5---------5--------|5---------5---------5--------|
A|3----------------------------|-----------------------------|
E|-----------------------------|6----------------------------|
  you,                          love,


e|--------- --------- ---------|--------- --------- ---------|
B|6---------6---------6--------|6---------6---------6--------|
G|5---------5---------5--------|5---------5---------5--------|
D|3---------3---------3--------|3---------3---------3--------|
A|-----------------------------|-----------------------------|
E|5----------------------------|4----------------------------|
  true                          love


e|--------- --------- ---------|--------- --------- ---------|
B|4---------4---------4--------|4---------4---------4--------|
G|3---------3---------3--------|5---------5---------5--------|
D|5---------5---------5--------|6---------6---------6--------|
A|6----------------------------|--------------------3--------|
E|--------------------3--------|4----------------------------|
  Seems     to        be        all                 I'm 


e|--------- --------- ---------|--------- --------- ---------|
B|6---------6---------6--------|2---------2---------2--------|
G|6---------6---------6--------|3---------3---------3--------|
D|6---------6---------3--------|4---------4---------4--------|
A|4----------------------------|-----------------------------|   
E|-----------------------------|2----------------------------|
            thinking            of,           but   it's 


e|--------- --------- ---------|--------- --------- ---------|
B|1---------1---------1--------|1---------1---------1--------|
G|1---------1---------1--------|1---------1---------1--------|
D|3---------3---------3--------|3---------3---------3--------|
A|-----------------------------|-----------------------------|
E|1----------------------------|1----------------------------|
  true, 
e|--------- --------- ---------|--------- --------- ---------|
B|--------------------1--------|1--------------1----1--------|
G|1----------------------------|3--------------1----0--------|
D|-----------------------------|-----------------------------|


          xxx     x   x         x
e|--------- --------- ---------|--------- --------- ---------|
B|3----------------------------|-----------------------------|
G|3----------------------------|-----------------------------|
D|3----------------------------|-----------------------------|
A|1----------------------------|-----------------------------|
E|-----------------------------|-----------------------------|
                                     it's           for 
e|--------- --------- ---------|--------- --------- ---------|
B|1----------------------------|-----------------------------|
G|-----------------------------|-----------------------------|
D|3----------------------------|-----------------------------|

  00:33
  Eb                         
e|--------- --------- ---------|--------- --------- ---------|
B|4---------4---------4--------|4---------4---------4--------|
G|3---------3---------3--------|3---------3---------3--------|
D|5---------5---------5--------|5---------5---------5--------|
A|6----------------------------|--------------------6--------|
E|-----------------------------|6----------------------------|
  you

                                x      x  X         X
  Dm                            G7
e|1-------- 1-------- 1--------|1-------- 1-------- 1--------|
B|3---------3---------3--------|0---------0---------0--------|
G|2---------2---------2--------|0---------0---------0--------|
D|0----------------------------|-----------------------------|
A|-----------------------------|-----------------------------|
E|-----------------------------|3----------------------------|
  They                          said                     that 

  BRIDGE
  Cm
e|--------- --------- ---------|--------- --------- ---------|
B|-------4------------4--------|-------4------------4--------|
G|-------5------------5--------|-------5------------5--------|
D|-------5------------5--------|-------5------------5--------|
A|3----------------------------|3----------------------------|
E|-----------------3-----------|-----------------3-----------|
  love was  a    lie            Told me   that I        

  Cm7                           F
e|--------- --------- ---------|--------- --------- ---------|
B|-------4------------4--------|1---------1---------1--------|
G|-------3------------3--------|2---------2---------2--------|
D|-------5------------5--------|3---------3---------3--------|
A|3----------------------------|-----------------------------|
E|-----------------3-----------|1----------------------------|
  should never   try       to   find

  Fm                            Cm
e|--------- --------- ---------|--------- --------- ---------|
B|1---------1---------1--------|4---------4---------4--------|
G|1---------1---------1--------|5---------5---------5--------|
D|3---------3---------3--------|5---------5---------5--------|
A|-----------------------------|3----------------------------|
E|1----------------------------|-----------------------------|
  Somebody       who'd     be   kind, 

  Dm                            G7
e|-------1- --------- 1--------|-------1- --------- 1--------|
B|-------3------------3--------|-------0------------0--------|
G|-------2------------2--------|-------0------------0--------|
D|0----------------------------|-----------------0-----------|
A|-----------------0-----------|-----------------------------|
E|-----------------------------|3----------------------------|
  kind           to   only      me

  Dm                            G7
e|-------1- --------- 1--------|-------1- --------- 1--------|
B|-------3------------3--------|-------0------------0--------|
G|-------2------------2--------|-------0------------0--------|
D|0----------------------------|-----------------0-----------|
A|-----------------0-----------|-----------------------------|
E|-----------------------------|3----------------------------|
  So                            I                   just

  Cm                            Cm7
e|--------- --------- ---------|--------- --------- ---------|
B|-------4------------4--------|-------4------------4--------|
G|-------5------------5--------|-------3------------3--------|
D|-------5------------5--------|-------5------------5--------|
A|3----------------------------|3----------------------------|
E|-----------------3-----------|-----------------3-----------|
  tell them they're             Who wants a    fight?
                 right
                                F
e|--------- --------- ---------|--------- --------- ---------|
B|-------4------------4--------|1---------1---------1--------|
G|-------3------------3--------|2---------2---------2--------|
D|-------5------------5--------|3---------3---------3--------|
A|3----------------------------|-----------------------------|
E|-----------------3-----------|1----------------------------|
  Tell them I   quite      agree, 

  Fm                            Cm
e|--------- --------- ---------|--------- --------- ---------|
B|1---------1---------1--------|4---------4---------4--------|
G|1---------1---------1--------|5---------5---------5--------|
D|3---------3---------3--------|5---------5---------5--------|
A|-----------------------------|3----------------------------|
E|1----------------------------|-----------------------------|
  nobody'd       love           me

 (.
  Dm
e|1-------- --------- ---------|--------- --------- ---------|
B|3----------------------------|-----------------------------|
G|2----------------------------|-----------------------------|
D|0----------------------------|-----------------------------|
A|-----------------------------|-----------------------------|
E|-----------------------------|-----------------------------|
  Then           I    look at   you                 and


  VERSE
  00:58
  love comes, love shows
  I give my heart and no one knows that I do
  It's for ...


  01:11
e|--------- --------- ---------|--------- --------- ---------|
B|4---------4---------4--------|4---------4---------4--------|
G|3---------3---------3--------|3---------3---------3--------|
D|5---------5---------5--------|5---------5---------5--------|
A|6----------------------------|--------------------6--------|
E|-----------------------------|6----------------------------|
  you

                               (.
                      x         X         xxxxxxxxx x         
e|1-------- --------- ---------|1-------- --------- ---------|
B|3----------------------------|0----------------------------|
G|2----------------------------|0----------------------------|
D|0----------------------------|-----------------------------|
A|-----------------------------|-----------------------------|
E|-----------------------------|3----------------------------|


  SOLO
  01:16
e|--------- --------- ---------|--------- --------- ---------|
B|-----------------------------|-----------------------------|
G|----------4----5-------------|4----5---------7---------8---|
D|-----5-------------------5---|-----------------------------|
A|-----------------------------|-----------------------------|
E|-----------------------------|-----------------------------|



e|--------- --------- ---------|--------- --------- ---------|
B|-----------------------------|-----3---------4---------6---|
G|----------4----5-------------|5----------------------------|
D|-----3-------------------3---|-----------------------------|
A|-----------------------------|-----------------------------|
E|-----------------------------|-----------------------------|



e|--------- --------- ---------|--------- --------- ---------|
B|-----8-------------------8---|-----8---------8----6----4---|
G|-----8-------------------8---|-----8---------8----7----5---|
D|----------------8------------|-----------------------------|
A|---------------10------------|-----------------------------|
E|-----------------------------|-----------------------------|



e|--------- --------- ---------|--------- --------- ---------|
B|-----6-------------------6---|-----6---------6----4----2---|
G|-----6-------------------6---|-----6---------6----5----3---|
D|---------------6-------------|-----------------------------|
A|---------------8-------------|-----------------------------|
E|-----------------------------|-----------------------------|



e|--------- --------- ---------|--------- --------- ---------|
B|1----------------------------|-----------------------------|
G|1----------------------------|-----------------------------|
D|-----------------------------|-----------------------------|
A|-----------------------------|-----------------------------|
E|-----------------------------|-----------------------------|



e|--------- --------- ---------|--------- --------- ---------|
B|-----------------------------|-----------------------------|
G|-----------------------------|-----------------------------|
D|-----------------------------|-----------------------------|
A|-----------------------------|-----------------------------|
E|-----------------------------|-----------------------------|
                                         It's            for


  01:29
e|--------- --------- ---------|--------- --------- ---------|
B|4---------4---------4--------|4---------4---------4--------|
G|3---------3---------3--------|3---------3---------3--------|
D|5---------5---------5--------|5---------5---------5--------|
A|6----------------------------|--------------------6--------|
E|-----------------------------|6----------------------------|
  you


                 BRIDGE
  01:31
  They said that love was a lie
  Told me that I should never try to find
  Somebody who'd be kind, kind to only me

  01:42
  So I just tell them they're right
  Who wants a fight?
  Tell them I quite agree, nobody'd love me
  Then I look at you and

  CODA
  01:53
  love comes, love shows
  I give my heart and no one knows, but I ...


  02:02
e|--------- --------- ---------|--------- --------- ---------|
B|1---------1---------1--------|1---------1---------1--------|
G|1---------1---------1--------|1---------1---------1--------|
D|3---------3---------3--------|3---------3---------3--------|
A|-----------------------------|-----------------------------|
E|1----------------------------|1----------------------------|      
  do
e|--------- --------- ---------|--------- --------- ---------|
B|--------------------1--------|1--------------1----1--------|
G|1----------------------------|3--------------1----0--------|
D|-----------------------------|-----------------------------|

                              
                               (.
           xx        xx         X                          xxx                           
e|--------- --------- ---------|--------- --------- ---------|
B|3----------------------------|3----------------------------|
G|3----------------------------|3----------------------------|
D|3----------------------------|3----------------------------|
A|1----------------------------|1----------------------------|
E|-----------------------------|-----------------------------|
                                          It's           for
e|--------- --------- ---------|--------- --------- ---------|
B|1----------------------------|-----------------------------|
G|-----------------------------|-----------------------------|
D|3----------------------------|-----------------------------|


  02:06
  x                                                      
e|--------- --------- ---------|--------- --------- ---------|
B|4---------4---------4--------|4---------4---------4--------|
G|3---------3---------3--------|3---------3---------3--------|
D|5---------5---------5--------|5---------5---------5--------|
A|6----------------------------|--------------------6--------|
E|-----------------------------|6----------------------------|
  you
                               
                               (. 
e|1-------- --------- ---------|3-------- --------- ---------|
B|3----------------------------|0----------------------------|
G|2----------------------------|0----------------------------|
D|0----------------------------|-----------------------------|
A|-----------------------------|-----------------------------|
E|-----------------------------|3----------------------------|
                                          It's         for


e|--------- --------- ---------|--------- --------- ---------|
B|4---------4---------4--------|4---------4---------4--------|
G|5---------5---------5--------|5---------5---------5--------|
D|5---------5---------5--------|5---------5---------5--------|
A|3----------------------------|3----------------------------|
E|-----------------------------|-----------------------------|
  you

                               (.
e|1-------- --------- ---------|3-------- --------- ---------|
B|3----------------------------|0----------------------------|
G|2----------------------------|0----------------------------|
D|0----------------------------|-----------------------------|
A|-----------------------------|-----------------------------|
E|-----------------------------|3----------------------------|
                                          It's           for

  02:15
e|--------- --------- ---------|--------- --------- ---------|
B|4---------4---------4--------|3---------3---------3--------|
G|5---------5---------5--------|3---------3---------3--------|
D|5---------5---------5--------|3---------3---------3--------|
A|3----------------------------|-----------------------------|
E|-----------------------------|3----------------------------|
  you
e|--------- --------- 3--------|3-------- ------3-- 3--------|
B|4----------------------------|6---------------4---3--------|
G|-----------------------------|-----------------------------|
D|-----------------------------|-----------------------------|
A|-----------------------------|-----------------------------|
E|-----------------------------|-----------------------------|




e|--------- --------- ---------|--------- --------- ---------|
B|4---------4---------4--------|4----------------------------|
G|5---------5---------5--------|5----------------------------|
D|5---------5---------5--------|5----------------------------|
A|3----------------------------|3----------------------------|
E|-----------------------------|-----------------------------|

e|3-------- --------- ---------|--------- --------- ---------|
B|-----------------------------|-----------------------------|
G|5----------------------------|-----------------------------|
D|----------5------------------|-----------------------------|
A|--------------------6--------|3----------------------------|
E|-----------------------------|-----------------------------|







  
        B  Bend
        R  Release
        /  Slide up
        \  Slide down
        H  Hammer-on
        P  Pull-off
        ~  Vibrato
        +  Harmonic
        x  Mute note
        .  Play note like a dot in standard notation
        ^  Ties two notes together
        (. Pause



       
Related for Its For You tab