Song name
# A B C D E F G H I J K L M N O P Q R S T U V W X Y Z

Paul Mccartney - Step Inside Love tab

   ----------------------------------------------------------

   CILLA BLACK - STEP INSIDE LOVE (Lennon & McCartney) From 
                 "THE BEST OF CILLA BLACK" album. Released   
                 March 1968. The single reached # 8 in the 
                 UK. 
   ----------------------------------------------------------

   Tabbed by:PJVillanueva





   This demo was filmed at Chappel Studios, London on November
   21st 1967 for Cilla Black's BBC TV series and later used in
   the promo for the song. It featured the finished version of 
   the song. It is just Cilla Black singing and Paul McCartney 
   on acoustic guitar. The studio version released as a single 
   was recorded in another key (G), at a fifth higher register 
   than this earlier arrangement, which is in the key of D and
   is obviously a little low for the best use of Cilla's voice.
   



   Step inside love, let me find you a place 
   Where the cares of the day will be carried away 
   By the smile on your face. 
   We are together now and forever, come my way. 
   Step inside love and stay. 
   Step inside love, step inside love, step inside love, 
   I want you to stay. 

   You look tired love, let me turn down the light 
   Come in out of the cold, rest your head on my shoulder 
   And love me tonight. 
   I'll always be here if you should need me, 
   Night and day. 
   Step inside love and stay. 
   step inside love, 
   Step inside love, 
   I want you to stay. 

   When you leave me, say you'll see me again, 
   For I know in my heart we will not be apart 
   And I'll miss you till then. 
   We'll be together now and forever, come my way. 
   Step inside love and stay. 

   Step inside love (I want you to). 
   Step inside love (I know I do). 
   Step inside love, 
   I want you to stay. 




                                   (.
                                    D
  e|------- ------- ------- -------|5------ ------- ------- -------|
  B|-------------------------------|7------------------------------|
  G|-------------------------------|7------------------------------|
  D|-------------------------------|0------------------------------|
  A|-------------------------------|-------------------------------|
  E|-------------------------------|-------------------------------|
                                                       Step inside


  e|5------ 5---5-- 5---5-- 5---5--|5---5-- 5---5-- 5---5-- 5------|
  B|7-------7---7---7---7---7---7--|7---7---7---7---7---7---7------|
  G|7-------7---7---7---7---7---7--|7---7---7---7---7---7---7------|
  D|0-------0---0---0---0---0---0--|0---0---0---0---0---0---0------|
  A|-------------------------------|-------------------------------|
  E|-------------------------------|-------------------------------|
                love                                    let me  find 

    Am                              Ab7-9
  e|5------ ----5-- 5---5-- 5------|7---7-- 7---7-- ----7-- 7------|
  B|5-------x---5---5---5---5---x--|7---7---7---7-------7---7------|
  G|5-------x---5---5---5---5---x--|5---5---5---5-------5---5------|
  D|7-------x---7---7---7---7---x--|4---4---4---4-------4---4------|
  A|7-----------7---7---7---7------|6---6---6---6-------6---6------|
  E|5-----------5---5---5---5------|4---4---4---4-------4---4------|                                     
        you a   place                                   where  cares 
                                                            the
    G
  e|3------ 3---3-- ----3-- 3------|3---3-- ----3-- ----3-- 3------|
  B|3-------3---3-------3---3------|3---3-------3-------3---3------|
  G|4-------4---4-------4---4------|4---4-------4-------4---4------|
  D|5-------5---5-------5---5------|5---5-------5-------5---5------|
  A|5-------5---5-------5---5------|5---5-------5-------5---5------|
  E|3-------3---3-------3---3------|3---3-------3-------3---3------|
        of  the day         will be carried away        by      the 


           
    Gm7                             F#7-9
  e|3------ ----3-- ----3-- 3------|5------ ----5-- ----5-- 5------|
  B|6-----------6-------6---6---x--|5-----------5-------5---5------|
  G|3-----------3-------3---3---x--|3-----------3-------3---3------|
  D|5-----------5-------5---5---x--|2-----------2-------2---2------|
  A|5-----------5-------5---5------|4-----------4-------4---4------|
  E|3-----------3-------3---3------|2-----------2-------2---2------|
    smile       your                            We  are     together
        on          face.


    F                               G
  e|1------ 1---1-- ----1-- 1---1--|3---3-- 3---3-- 3---3-- -------|
  B|1-------1---1-------1---1---1--|3---3---3---3---3---3---x------|
  G|2-------2---2-------2---2---2--|4---4---4---4---4---4---x------|
  D|3-------3---3-------3---3---3--|5---5---5---5---5---5---x------|
  A|3-------3---3-------3---3---3--|5---5---5---5---5---5----------|
  E|1-------1---1-------1---1---1--|3---3---3---3---3---3----------|
                now     and     forever, 



    A       A6      A7
  e|5------ 5------ 5------ 5---5--|5---5-- 5---5-- 5---5-- 5------|
  B|5-------7-------8-------8---8--|8---8---8---8---8---8---8------|
  G|6-------6-------6-------6---6--|6---6---6---6---6---6---6------|
  D|7-------7-------7-------7---7--|7---7---7---7---7---7---7------|
  A|0-------0-------0-------0---0--|0---0---0---0---0---0---0------|
  E|-------------------------------|-------------------------------|
    come    my      way.                                Step 
                                                            inside

                                         
    Em7                             A7
  e|7------ ----7-- ----7-- 7------|5------ 5------ ----5-- -------|
  B|8-------x---8-------8---8---x--|8-------8-------x---8-/--------|
  G|7-------x---7-------7---7---x--|6-------6-------x---6-/--------|
  D|9-------x---9-------9---9---x--|7-------7-------x---7-/--------|
  A|7-----------7-------7---7------|0-------0-----------0----------|
  E|-------------------------------|-------------------------------|
                love                                and


    00:28
    D                           Cadd9   G
  e|10----- 10--10- 10----- ----8--|----7-- 7---7-- 7---7-- 7------|
  B|10------10--10--10--x-------8--|----8---8---8---8---8---8------|
  G|11------11--11--11--x-------9--|----7---7---7---7---7---7------|
  D|-0-------0---0---0--x-------0--|----0---0---0---0---0---0------|
  A|-------------------------------|-------------------------------|
  E|-------------------------------|-------------------------------|
    stay.       Step    inside          love



    D                   F6      Cadd9   G        
  e|10--10- 10--10- ----8-- ----8--|----7-- 7---7-- 7------ 7------|
  B|10--10--10--10-----10-------8--|----8---8---8---8-------8------|
  G|11--11--11--11-----10-------9--|----7---7---7---7-------7------|
  D|-0---0---0---0------0-------0--|----0---0---0---0-------0------|
  A|-------------------------------|-------------------------------|
  E|-------------------------------|-------------------------------|
                Step    inside          love


    D                   F6      Cadd9   G
  e|10--10- 10--10- ----8-- ----8--|----7-- 7------ 7---7-- 7------|
  B|10--10--10--10-----10-------8--|----8---8-------8---8---8------|
  G|11--11--11--11-----10-------9--|----7---7-------7---7---7------|
  D|-0---0---0---0------0-------0--|----0---0-------0---0---0------|
  A|-------------------------------|-------------------------------|
  E|-------------------------------|-------------------------------|
                Step    inside          love.   I   want    to
                                                        you
                                   (.
    D           A6      Am6     C   Cadd9
  e|5------ ----5-- ----5-- --\-3--|3------ ------- ------- -------|
  B|7-----------7-------7-----\-5--|5------------------------------|
  G|7-----------6-------5-----\-5--|5------------------------------|
  D|0------------------------------|0------------------------------|
  A|0------------------------------|-------------------------------|
  E|-------------------------------|-------------------------------|
    stay.                                       You     lok     tired



                                        


    00:43
     love, let me turn down the light 
    Come in out of the cold, rest your head on my shoulder 
    And love me tonight. 
    I'll always be here if you should need me, 
    Night and day. 
    Step inside love and
 
    01:09
    stay. 
    Step inside love, 
    Step inside love,
    Step inside love,  
    I want you to ...

    01:20
    Bb 
  e|------- ------- ------- -------|------- ------- ------- -------|
  B|----------------3---3---3---3--|3---3-------3-------3-------x--|
  G|------------3---3---3---3---3--|3---3-------3-------3-------x--|
  D|--------3---3---3---3---3---3--|3---3-------3-------3-------x--|
  A|1-------1---1---1---1---1---1--|1---1-------1-------1----------|
  E|-------------------------------|-------------------------------|
    stay

                                         
    Am                         Ab7          Ab7-9
  e|5------ ----5-- 5---5-- ---4---|----7-- 7------ 7---7-- 7------|
  B|5-------x---5---5---5------4---|--------7-------7---7---7------|
  G|5-------x---5---5---5------5---|--------5-------5---5---5------|
  D|7-------x---7---7---7------6---|--------4-------4---4---4------|
  A|7-----------7---7---7------6---|--------6-------6---6---6------|
  E|5-----------5---5---5------4---|--------4-------4---4---4------|
                                                                                                 

    01:26
    G
  e|3------ 3------ 3------ 3---3--|----3-- 3---3-- 3---3-- 3---3--|
  B|3-------3-------3-------3---3--|----3---3---3---3---3---3---3--|
  G|4-------4-------4-------4---4--|----4---4---4---4---4---4---4--|
  D|5-------5-------5-------5---5--|----5---5---5---5---5---5---5--|
  A|5-------5-------5-------5---5--|----5---5---5---5---5---5---5--|
  E|3-------3-------3-------3---3--|----3---3---3---3---3---3---3--|



    Gm7                             F#7-9
  e|3------ ----3-- ----3-- 3------|5---5-- 5---5-- 5---5-- 5------|
  B|6-------x---6-------6---6---x--|5---5---5---5---5---5---5------|
  G|3-------x---3-------3---3---x--|3---3---3---3---3---3---3------|
  D|5-------x---5-------5---5---x--|2---2---2---2---2---2---2------|
  A|5-----------5-------5---5------|4---4---4---4---4---4---4------|
  E|3-----------3-------3---3------|2---2---2---2---2---2---2------|   
                                                doo doooo   doooo
  

    F                               G
  e|1------ ----1-- ----1-- 1------|3------ ----3-- 3---3-- 3------|
  B|1-----------1-------1---1------|3-----------3---3---3---3---x--|
  G|2-----------2-------2---2------|4-----------4---4---4---4---x--|
  D|3-----------3-------3---3------|5-----------5---5---5---5---x--|
  A|3-----------3-------3---3------|5-----------5---5---5---5------|
  E|1-----------1-------1---1------|3-----------3---3---3---3------|
    doo doooo   doooo   doo doooo   doo doo        


    A       A6      A7
  e|5------ 5------ 5------ 5---5--|----5-- 5---5-- 5---5-- 5------|
  B|5-------7-------8-------8---8--|----8---8---8---8---8---8------|
  G|6-------6-------6-------6---6--|----6---6---6---6---6---6------|
  D|7-------7-------7-------7---7--|----7---7---7---7---7---7------|
  A|0-------0-------0-------0---0--|----0---0---0---0---0---0------|
  E|-------------------------------|-------------------------------|
    doooo   doooo   doooooooooooooooohhhh               Ooooooooooo


    Em7                             A7
  e|0------ 0---0-- ----0-- 0------|5------ 5------ 5------ 5------|
  B|3-------3---3-------3---3---x--|8-------8-------8-------8------|
  G|0-------0---0-------0---0---x--|6-------6-------6-------6------|
  D|2-------2---2-------2---2---x--|7-------7-------7-------7------|
  A|2-------2---2-------2---2------|0-------0-------0-------0------|
  E|0-------0---0-------0---0------|-------------------------------|
    oooooooooooooooooooooooohhhhhhhhhhhhh           Ooooooooooooooo

    01:44
    D                   F6      Cadd9   G 
  e|10--10- 10--10- ----8-- ----8--|----7-- 7---7-- 7---7-- 7------|
  B|10--10--10--10-----10-------8--|----8---8---8---8---8---8------|
  G|11--11--11--11-----10-------9--|----7---7---7---7---7---7------|
  D|-0---0---0---0------0-------0--|----0---0---0---0---0---0------|
  A|-------------------------------|-------------------------------|
  E|-------------------------------|-------------------------------|
    oohhh       Step    inside          love
  



  e|10--10- 10--10- ----8-- ----8--|----7-- 7---7-- 7---7-- 7------|
  B|10--10--10--10-----10-------8--|----8---8---8---8---8---8------|
  G|11--11--11--11-----10-------9--|----7---7---7---7---7---7------|
  D|-0---0---0---0------0-------0--|----0---0---0---0---0---0------|
  A|-------------------------------|-------------------------------|
  E|-------------------------------|-------------------------------|
                Step    inside          love



  e|10--10- 10--10- ----8-- ----8--|----7-- 7---7-- 7------ 7------|
  B|10--10--10--10-----10-------8--|----8---8---8---8-------8------|
  G|11--11--11--11-----10-------9--|----7---7---7---7-------7------|
  D|-0---0---0---0------0-------0--|----0---0---0---0-------0------|
  A|-------------------------------|-------------------------------|
  E|-------------------------------|-------------------------------|
                Step    inside          love.   I   want    to
                                                        you
                                 
    D           A6      Am6         C           G6      Gm6     
  e|5------ ----5-- ----5-- -------|3------ ----3-- ----3-- -------|
  B|7-----------7-------7----------|5-----------5-------5----------|
  G|7-----------6-------5----------|5-----------4-------3-------0--|
  D|0---------------------------5--|-------------------------------|
  A|0------------------------------|-------------------------------|
  E|-------------------------------|-------------------------------|
    stay


    D           Bm      D       G5  A5  A6  A7
  e|2------ ----2-- ----2-- -------|------- ------- ------- -------|
  B|3-----------3-------3-------3--|-------------------------------|
  G|2-----------4-------2-------0--|-------------------------------|
  D|-------------------------------|2---4---5----------------------|
  A|-------------------------------|0---0---0----------------------|
  E|-------------------------------|-------------------------------|
                                                        When
                                                            you


    02:02
    leave me, say you'll see me again, 
    For I know in my heart we will not be apart 
    And I'll miss you till then. 
    We'll be together now and forever, come my way. 
    Step inside love and

    02:27 
    stay. 
    Step inside love (I want you to). 
    Step inside love (I know I do). 
    Step inside love, 
    I want you to... 


    02:38
    D           A6      Am6         C           G6      Gm6    
  e|5------ ----5-- ----5-- -------|3------ ----3-- ----3-- -------|
  B|7-----------7-------7----------|5-----------5-------5----------|
  G|7-----------6-------5----------|5-----------4-------3-------0--|
  D|0---------------------------5--|-------------------------------|
  A|0------------------------------|-------------------------------|
  E|-------------------------------|-------------------------------|
    stay

                                                   (.
    D       G   D       F   C       G               D
  e|2------ 7---10- ----8-- 8------/7--/7-- ------- 5------ -------|
  B|3-------8---10-----10---8------/8--/8-----------7--------------|
  G|2-------7---11-----10---9------/7--/7-----------7--------------|
  D|-------------------------------|----------------0--------------|
  A|-------------------------------|-------------------------------|
  E|-------------------------------|-------------------------------|










          B  Bend
          R  Release
          /  Slide up
          \  Slide down
          H  Hammer-on
          P  Pull-off
          ~  Vibrato
          +  Harmonic
          x  Mute note
          .  Play note like a dot in standard notation
          ^  Ties two notes together
          (. Pause




Tap to rate this tab
# A B C D E F G H I J K L M N O P Q R S T U V W X Y Z