Song name
# A B C D E F G H I J K L M N O P Q R S T U V W X Y Z

Paul Mccartney - Only Mama Knows tab

I love this song,but i was yet to find a full correct tab for it.  Here's my shot at it:

intro
0:46

-------------------------|
-------------10-8--------|
---------7-9------9p7-9--|
---5-7-9-----------------|
-7-----------------------|
-------------------------|

verse
0:51

Em - D - Em - D
Em - D - Em - F#- Em - D - D
Em - D - Em - D
Em - D - Em - F#- Em - D-A-E

chorus
1:29
B - D#m - C#m - Em
B - D#m - C#m - Em

bridge
1:45
Em7 for a while

Bm
-------------------------|
----------10-12----------|
---7-11-9---------7-11-9-|     x2
-9--------------9--------|
-------------------------|
-------------------------|

Bm
----------|
----------|
---7-11-9-|    x3
-9--------|
----------|
----------|

Bm
--------------------------|
--------------------------|
-12-11-9-7---12-11-11-9-7-|
--------------------------|
--------------------------|
--------------------------|

2:18 (Hold On part)
Em for awhile

Intro

-------------------------|
-------------10-8--------|
---------7-9------9p7-9--|
---5-7-9-----------------|
-7-----------------------|
-------------------------|

Verse

Em - D - Em - D
Em - D - Em - F#- Em - D-A-E

Chorus

B - D#m - C#m - Em
B - D#m - C#m - Em

Lil bit of the Bridge (Em7 part)

Chorus

Bridge
(Variations of the riffs in it over the "hold on" part)

Intro

End


Please rate/comment/suggest changes :)
Tap to rate this tab
 
# A B C D E F G H I J K L M N O P Q R S T U V W X Y Z