Song name
# A B C D E F G H I J K L M N O P Q R S T U V W X Y Z

Paul Oakenfold - Ready Steady Go tab

Guitar 1
e------------------------------|
b--------------5---7-----------|
G----------6---4---6-----------|
D----------6---2---4-----------|
A----------4-------------------|
C#-----------------------------|

            or

e------------------------------|
b------------------------------|
G----------6---4---6-----------|
D----------6---2---4-----------|
A----------4---2---4-----------|
C#-----------------------------|


then bend this little guy around
e-------------|
b-------------|
G-------------|
D------6------|
A-------------|
C#------------|


Guitar 2
e--------------------------|-------------------------|
b--------------------------|-------------------------|
G--------------------------|-------------------------|
D--------------------------|-------------------------|
A--------------------------|----4---4--4--4---6--7---|
Df---0--0-0-0--2--0--3--0--|-------------------------|

Guitar 3
e-------------------------|-----------------------------|
b-----9--9--7--9--7/4-----|--4-4h5---4-4h5--4h5p4h5p4---|
G-------------------------|-----------------------------|
D-------------------------|-----------------------------|
A-------------------------|-----------------------------|
Df------------------------|-----------------------------|


thats basically it, listen to the song and it should be pretty easy to figure out 
you know, you're dumb
Tap to rate this tab
# A B C D E F G H I J K L M N O P Q R S T U V W X Y Z