Song name
# A B C D E F G H I J K L M N O P Q R S T U V W X Y Z

Paul Oakenfold - Ready Steady Go tab

TUNING IS   Db A D G B E     ---have fun! =D ---





clean w/ wah
Riff 1

e--------------|-----------------------------------|
b------4---6---|-----------------------------------|
G--6---4---6---|--6---4---6------------------------|
D--6---2---4---|--6---2---4------------------------|
A--4-----------|--4---2---4------------------------|
Db-------------|-----------------------------------|


play until 0:20


at 0:23 Play w/ delay until 0:52

e-----------|
b-----------|
G-----------|
D------6----|
A-----------|
Db----------|

at :52 with slight distorsion (2 guitars arr for one)

riff2

e--------------------------|-------------------------|
b--------------------------|-------------------------|
G--------------------------|-------------------------|
D--------------------------|-------------------------|
A--------------------------|-----------4------6--7---|
Db---0--0-0-0--2--0--3--0--|-------------------------|

at 1:06

riff 3
e-----------------------|-------------------------|
b----9--9--7--9--7///4--|--4-4h5---4-4h5--4h5-4h5-|
G ----------------------|-------------------------|
D-----------------------|-------------------------|
A-----------------------|-------------------------|
Db----------------------|-------------------------|

1:22

play riff 1

1:37

e-----------|----------|-----------|-------|
b-----------|----b9b---|-----------|-------|
G-----------|----------|-----------|-------|
D------6----|----------|------6----|-------|
A-----------|----------|-----------|-------|
Db----------|----------|-----------|-------|

repaeat until

2:08

play riff 2

2:22

Riff 3

2:38

Break

3:00

Play riff 1

e-----------|----------|-----------|-------|
b-----------|----b9b---|-----------|-------|
G-----------|----------|-----------|-------|
D------6----|----------|------6----|-------|
A-----------|----------|-----------|-------|
Df----------|----------|-----------|-------|

at 3:37

Play riff 3
and above riff until end
Tap to rate this tab
 
# A B C D E F G H I J K L M N O P Q R S T U V W X Y Z