Song name
# A B C D E F G H I J K L M N O P Q R S T U V W X Y Z

Paul Oakenfold - Faster Kill Pussycat tab

This is a great song featuring the talented Brittany Murphy (RIP). It's pretty simple,
but I couldn't find any tabs on the net for it. So I decided to tab it out myself. This
is deadly accurate.


Tabbed by: Chris Schmidt

Tuning: E Standard


Main Riff: This repeats throughout the song. NON STOP. Easy, right? Right? RIGHT!?
Careful though, that little D5 at the end there is only played SOMETIMES after the third
repeat of the riff!



e|--------------------------------------------------------------------------|
B|--------------------------------------------------------------------------|
G|--------------------------------------------------------------------------|
D|------------------------------------------7-------------------------------|
A|---5--5-7-7-8---5--5-7-7-8-----5--5-7-7-8-5-------------------------------|
E|---3--3-5-5-6---3--3-5-5-6-----3--3-5-5-6---------------------------------|



The Melody: Two Parts and we've got the whole song down? If only everything was this
easy! Break out your best Wah pedal for this! Originally this was played on an effects
heavy synth, but it sounds way cooler with a wah pedal. Listen closely to the song for 
the exact rhythm!


e|--------------------------------------------------------------------------|
B|-----------6~----------6~----8~-----6~------------------------------------|
G|---------7-----------7----7------7-------------5---5-7~-------------------|
D|-----5~---------5-5~---------------------5-5~----8------------------------|
A|--------------------------------------------------------------------------|
E|--------------------------------------------------------------------------|


Sweet! Now you can play the whole song. Makes ya feel all warm and fuzzy doesn't it? You
can throw in lots of variations by soloing with Gminor/pentatonic over the entire song!
Tap to rate this tab
 
# A B C D E F G H I J K L M N O P Q R S T U V W X Y Z