Guitaretab - guitar tabs
Song name
# A B C D E F G H I J K L M N O P Q R S T U V W X Y Z

Paul Revere And The Raiders - Im Not Your Steppin Stone tab

-------------------------------------------------------------------------------
			     I'm not your steppin' stone - Paul Revere & The Raiders
-------------------------------------------------------------------------------
Tabbed by: Dylan
Email: odin13@rock.com

Tuning: Standard (E A D G B e)

I heard this song on the Mojo: Roots of the Sex Pistols CD, and was apalled to find that 
was no tab for the raiders version of this song on UG.com, so i tabbed it :) have fun!

This song is basically made up from these four riffs
[ Tab from: http://www.guitaretab.com/p/paul-revere-and-the-raiders/145259.html ]
e|-------------------------------|
B|-------3----5----3-------------|
G|---2/4--4/6--2/4---2b-2-0------|
D|-------------------------------|
A|-------------------------------|
E|-------------------------------|

e|-------------------|
B|-------------------|
G|-------------------|
D|-------------------|
A|-------------------|
E|---0--3--5--7------|

e|-----------------|
B|-----------------|
G|-----------------|
D|-----------------|
A|-----------------|
E|---0--0-0--3--5--|

e|--------------|
B|--------------|
G|--------------|
D|--------------|
A|--------------|
E|--0--3--5--3--|

once you listen to the song you'll easilly be able to work out where to play what, email 
with any corrections or improvements you have! Cheers.

| /  slide up
| \  slide down
| h  hammer-on
| p  pull-off
| ~  vibrato
| +  harmonic
| x  Mute note
=============================================================
Related for Im Not Your Steppin Stone tab
Im Not Your Steppin Stone chords by Paul Revere And The Raiders