Song name
# A B C D E F G H I J K L M N O P Q R S T U V W X Y Z

Paul Revere And The Raiders - Him Or Me chords

Highlighted       Show chord diagrams
Him Or Me:Paul Revere and the Raiders.
#5 in 1967.

CHORUS:
Bb7
Now, have you got yourself a brand new baby?

Don't tell me, maybe.
      Ab   Bb       Eb
Is it so...I got to know.
                Ab Bb
What's it gonna be?
       Eb  Ab
Him or me..ee?
       Eb  Ab
Him or me..ee?
       Eb  Ab
Him or me..ee?
       Eb  Ab
Him or me..ee?

RIFF:

  ------------------------------------|
  ------------------------------------|
  ------------------------------------|
  ------------------------------------|
  ----------6-5-3---------------------|
  ----------------6-4-3-1-5-6---------| (Back to Bb)

#1.
Eb                          Ab            Bb
I can still recall when you told me I was all,
Eb             Ab              Bb
everything you looked for in a man.
      Eb
But I know that it's not true,
              Ab              Bb
I've seen the way he looks at you.
      F                  Bb          Eb
And I think you're gonna hang me up again.

CHORUS:
              Bb7
Now, have you got yourself a brand new baby?

Don't tell me, maybe.
      Ab   Bb       Eb
Is it so...I got to know.
                Ab  Bb
What's it gonna be?
       Eb  Ab
Him or me..ee?
       Eb  Ab
Him or me..ee?
       Eb  Ab
Him or me..ee?
       Eb  Ab
Him or me..ee?

RIFF:

  ------------------------------------|
  ------------------------------------|
  ------------------------------------|
  ------------------------------------|
  ----------6-5-3---------------------|
  ----------------6-4-3-1-5-6---------| (Back to Bb)

#2.

       Eb
So, if you would be so kind,
          Ab                  Bb
would you please make up your mind.
        Eb                Ab           Bb
I won't share your lovin' with another man.
       Eb                               Ab
And if you see things my way, could you let me
       Bb
know today.
       F                         Bb        Eb
But if you decide it's him, I'll change my plans.


CHORUS:
              Bb7
Now, have you got yourself a brand new baby?

Don't tell me, maybe.
      Ab   Bb       Eb
Is it so...I got to know.
                Ab Bb
What's it gonna be?
       Eb  Ab
Him or me..ee?
       Eb  Ab
Him or me..ee?
       Eb  Ab
Him or me..ee?
       Eb  Ab
Him or me..ee?

RIFF:

  ------------------------------------|
  ------------------------------------|
  ------------------------------------|
  ------------------------------------|
  ----------6-5-3---------------------|
  ----------------6-4-3-1-5-6---------|

OUTRO:

Bb
Him or me..ee?..(Sha la la la..sha la la la)

Him or me..ee?..(Sha la la la..sha la la la)

Him or me..ee?..(Sha la la la..sha la la la)

What's it gonna be?(Sha la la la..sha la la la)

RIFF:

  ------------------------------------|
  ------------------------------------|
  ------------------------------------|
  ------------------------------------|
  ----------6-5-3---------------------|
  ----------------6-4-3-1-5-6---------|

Bb
Him or me..ee?..(Sha la la la..sha la la la)

Him or me..ee?..(Sha la la la..sha la la la)

Him or me..ee?..(Sha la la la..sha la la la)

What's it gonna be?(Sha la la la..sha la la la)

RIFF:

  ------------------------------------|
  ------------------------------------|
  ------------------------------------|
  ------------------------------------|
  ----------6-5-3---------------------|
  ----------------6-4-3-1-5-6---------| (Back to Bb)

Bb
Him or me..ee?..(Sha la la la..sha la la la)

Him or me..ee?..(Sha la la la..sha la la la)

Him or me..ee?..(Sha la la la..sha la la la)

What's it gonna be?(Sha la la la..sha la la la)

RIFF:

  ------------------------------------|
  ------------------------------------|
  ------------------------------------|
  ------------------------------------|
  ----------6-5-3---------------------|
  ----------------6-4-3-1-5-6---------|

Bb
Him or me..ee?..(Sha la la la..sha la la la)

Him or me..ee?..(Sha la la la..sha la la la)

Him or me..ee?..(Sha la la la..sha la la la)

What's it gonna be?(Sha la la la..sha la la la)

RIFF:

  ------------------------------------|
  ------------------------------------|
  ------------------------------------|
  ------------------------------------|
  ----------6-5-3---------------------|
  ----------------6-4-3-1-5-6---------|


A sixties smash from Kraziekhat.
Tap to rate this tab
# A B C D E F G H I J K L M N O P Q R S T U V W X Y Z